Song name
# A B C D E F G H I J K L M N O P Q R S T U V W X Y Z

Misc - Metal Solo Riff tab

e|------------------------------------------------------------------------|
B|------------------------------------------------------------------------|
G|------13--11----------------------11------------------------------------|
D|--11----------14--13------13--14------14--13--11------11----------------|
A|----------------------14--------------------------14------11------------|
E|------------------------------------------------------------------------|

e|------------------------------------------------------------------------|
B|------------------------------------------------------------------------|
G|------13--11------11----------11--13--11--------------------------------|
D|--11----------14------13--14--------------14--13--11--9-----------------|
A|---------------------------------------------------------12--11--9------|
E|--------------------------------------------------------------------12--|

e|------------------------------------------------------------------------|
B|------------------------------------------------------------------------|
G|---------------------------------13-------------------------------------|
D|---------11--13--14--13--14--16------16--14--13--11--9------------------|
A|--------------------------------------------------------12--11--9-------|
E|--11---------------------------------------------------------------12---|


e|------------------------------------------------------------------------|
B|------------------------------------------------------------------------|
G|------------------------------------------------------------------------|
D|------------------------------------------------------------------------|
A|------------------------------------------------------------------------|
E|--11------9--11--12--11--7--11--12--------------------------------------|

Tabbed by: Borys Volyev
Tap to rate this tab
# A B C D E F G H I J K L M N O P Q R S T U V W X Y Z