Song name
# A B C D E F G H I J K L M N O P Q R S T U V W X Y Z

Misc - Dream Lost tab

-------------------------------------------------------------------------------
			     Dream Lost - Daniel Fagan
-------------------------------------------------------------------------------
Tabbed by:Daniel Fagan
Email:

Tuning: Drop D

e|---------------------------------------------------------------------------|
B|---------------------------------------------------------------------------|
G|---------------------------------------------------------------------------|   (2x)
D|--- 7-------7-----------7--------7---------5---------5---------5------5----|
A|- 8-------8-----------7--------7---------6---------6---------5-------5-----|
E|0-------0-----------7--------7---------0--------0----------5--------5------|

e|---------------------------------------------------------------------------|
B|---------------------------------------------------------------------------|
G|---------------------------------------------------------------------------|   (2x)
D|x-------7-7-7-7-7-----5-5----0-0-0-----------------------------------------|
A|x-------7-7-7-7-7-----5-5----0-0-0-----------------------------------------|
E|x-------7-7-7-7-7-----5-5----0-0-0-----------------------------------------|

e|---------------------------------------------------------------------------|
B|---------------------------------------------------------------------------|
G|---------------------------------------------------------------------------|   (2x)
D|--- 7-------7-----------7--------7---------5---------5---------5------5----|
A|- 8-------8-----------7--------7---------6---------6---------5-------5-----|
E|0-------0-----------7--------7---------0--------0----------5--------5------|

e|---------------------------------------------------------------------------|
B|---------------------------------------------------------------------------|
G|---------------------------------------------------------------------------|   (4x)
D|x---/12----7-7-7-7-7-----5-5----0-0-0--------------------------------------|
A|x--/-12----7-7-7-7-7-----5-5----0-0-0--------------------------------------|
E|x-/--12----7-7-7-7-7-----5-5----0-0-0--------------------------------------|




| /  slide up
| \  slide down
| h  hammer-on
| p  pull-off
| ~  vibrato
| +  harmonic
| x  Mute note
===============================================================================
Tap to rate this tab
 
# A B C D E F G H I J K L M N O P Q R S T U V W X Y Z