Song name
# A B C D E F G H I J K L M N O P Q R S T U V W X Y Z

Misc - Basic Blues Scale tab

ok this is just a basic blues scale that will help you increase playing speed if you 
it enough.  when you get it down, try to keep playing it faster and faster.  it can also be 
to together with other scales to create a song.  ok, here it is:

|------------------------------------------10-12---------------------------|
|---------------------------------10-11-12---------------------------------|
|----------------------------9-12------------------------------------------|
|------------------------9-12----------------------------------------------|
|------------------10-12---------------------------------------------------|
|------------10-12---------------------------------------------------------|

once youve got that down, go back up in reverse

|------------12-10---------------------------------------------------------|
|------------------12-11-10------------------------------------------------|
|---------------------------12-9-------------------------------------------|
|--------------------------------12-9--------------------------------------|
|-------------------------------------12-10--------------------------------|
|-------------------------------------------12-10--------------------------|

then you can add something on to it at the end to string together pieces

|------------12-10---------------------------------------------------------|
|------------------12-11-10------------------------------------------------|
|---------------------------12-9-------------------------------------------|
|--------------------------------12-9--------------------------------------|
|-------------------------------------12-10--------------------------------|
|-------------------------------------------12-10/7b-----------------------|

i hope this helps you and if you have any questions you can email me at shizahole@hotmail.com
Tap to rate this tab
# A B C D E F G H I J K L M N O P Q R S T U V W X Y Z