Song name
# A B C D E F G H I J K L M N O P Q R S T U V W X Y Z

Misc - The Song Of Joy tab

Help us improve GuitareTab! Take a short survey!
another person added this song and that was me and this one it waaaaay better

E-0--1-3-3-1-0------------0-0---------------------------------------------|
B----------------3-1-1-3-------3------------------------------------------|
G-------------------------------------------------------------------------|
D-------------------------------------------------------------------------|
A-------------------------------------------------------------------------|
E-------------------------------------------------------------------------|

second verse

E-0--1-3-3-1-0------------0------------------------------------------------|
B----------------3-1-1-3-----3---1-----------------------------------------|
G--------------------------------------------------------------------------|
D--------------------------------------------------------------------------|
A--------------------------------------------------------------------------|
E--------------------------------------------------------------------------|

bridge


E----0------0-1-0---------0-1-0------------------------------------------------|
B-3----1--3-------1----3-------3-1-3-------------------------------------------|
G-----------------------------------0------------------------------------------|
D------------------------------------------------------------------------------|
A------------------------------------------------------------------------------|
E------------------------------------------------------------------------------|

FINAL VERSE

E-0--1-3-3-1-0------------0--------------------------------------------------|
B----------------3-1-1-3-------3-1-------------------------------------------|
G----------------------------------------------------------------------------|
D----------------------------------------------------------------------------|
A----------------------------------------------------------------------------|
E----------------------------------------------------------------------------|
Related for The Song Of Joy tab