Song name
# A B C D E F G H I J K L M N O P Q R S T U V W X Y Z

Misc - Silent Night In G tab

Silent Night in G
-----------------------------------------------------------------
Tabbed by: Zach Galland
Email: z_94_g@hotmail.com
Tuning: Standard

This is an easy, fun holiday song that every body should learn, especially
since the holidays are coming up.

e|-----0-----------------0----------------5---5----2-----3----3-------------|
B|3-------3---0----3---------3---0---------------------------------3--------|
G|--------------------------------------------------------------------------|
D|--------------------------------------------------------------------------|
A|--------------------------------------------------------------------------|
E|--------------------------------------------------------------------------|

e|0----0---3---2-0---------0-------------0----0---3---2-0---------0---------|
B|-------------------3--------3---0--------------------------3---------3----|
G|--------------------------------------------------------------------------|
D|--------------------------------------------------------------------------|
A|--------------------------------------------------------------------------|
E|--------------------------------------------------------------------------|

e|5---5---8---5-----3------/------7-----------------------------------------|
B|---------------7----------------------------------------------------------|
G|--------------------------------------------------------------------------|
D|--------------------------------------------------------------------------|
A|--------------------------------------------------------------------------|
E|--------------------------------------------------------------------------|

e|3-------------------------------------------------------------------------|
B|------3---0---3-----1-----------------------------------------------------|
G|------------------------2-----0-------------------------------------------|
D|------------------------------0-------------------------------------------|
A|------------------------------2-------------------------------------------|
E|------------------------------3-------------------------------------------|


| /  slide up
| \  slide down
| h  hammer-on
| p  pull-off
| ~  vibrato
| +  harmonic
| x  Mute note
Tap to rate this tab
# A B C D E F G H I J K L M N O P Q R S T U V W X Y Z