Song name
# A B C D E F G H I J K L M N O P Q R S T U V W X Y Z

Misc - Waking Up Dead tab

Tuning: C#
        G#
        E
        B
        F#
        B

LEGEND:Palm Muted:---
       Slide:/\
 

Intro x3
|------------------|
|------------------|
|------------------|
|------------------|
|-5--3--2--1--2--0-|
|-5--3--2--1--2--0-|


Riff 1 x3
|-------------------|    |---------------------------|
|-------------------|    |---------------------------|
|-------------------|    |---------------------------|
|-------------------| x3 |---------------------------|
|----------7-5-7-5--|    |----------7-5-7-5-7/9-7ph--|
|-000-000--7-5------|    |-000-000--7-5--------------|
  --- ---                  --- ---

Riff 2 x2
|----------------------------------------------|
|----------------------------------------------|
|----------------------------------------------|
|----------------------------------------------|
|----------2---4---------3---5---------4-3-2~--|
|-7/\--0-0-2-0-4-0-0-0-0-3-0-5-0-0-0-0-4-3-2~--|
       - -   -   - - - -   -   - - - -


Riff 3 x6
|-------------------------------------------|
|-------------------------------------------|
|-------------------------------------------|
|-------------------------------------------|
|-----2---4---------3---5---------4-3-2-3ph-|
|-0-0-2-0-4-0-0-0-0-3-0-5-0-0-0-0-4-3-2-----|
  - -   -   - - - -   -   - - - -


Bridge
|----------------------------------------------|
|----------------------------------------------|
|----------------------------------------------|
|-0~~-------2~~-------1~~-------0~~~~----------|
|-0~~-------2~~-------1~~-------0~~~~----------|
|-0~~-0-0-0-2~~-2-2-2-1~~-1-1-1-0~~~~-----7/\--|
      - - -     - - -     - - -


Riff 4 x6
|--------------------------------|
|--------------------------------|
|--------------------------------|
|--------------------------------|
|----7-5-4-5-3ph----2-3-2-4-3ph--|
|-0-0-0-0-0-0----0-0-0-0-0-0-----|
  - - - - - -    - - - - - -


Riff 5 x3
|-------------------------------------------------------------------------|
|-------------------------------------------------------------------------|
|-------------------------------------------------------------------------|
|-------------------------------------------------------------------------|
|--7tp---5tp---4tp---5tp---3tp--0~~--2tp---3tp---2tp---4tp---3tp--0~~-----|
|-------------------------------0~~-------------------------------0~~-----|


Breakdown
|----------------------|
|----------------------|
|----------------------|
|----------------------|x2
|--5--3--2--1--2--0~~~-|
|--5--3--2--1--2--0~~~-|
   -  -  -  -  -

|--------------------------------------------|
|--------------------------------------------|
|--------------------------------------------|
|--------------------------------------------| x3
|-0-0-0-5-7--0-0-0-3-5--0-0-0-2-3--0-0-0-1-2-| |-0-0-0-5----0-0-0-3----0-0-0-2----0-0-0-1---|
  - - -      - - -      - - -      - - -

repeat once but no breakdown second time
Tap to rate this tab
# A B C D E F G H I J K L M N O P Q R S T U V W X Y Z