Song name
# A B C D E F G H I J K L M N O P Q R S T U V W X Y Z

Misc - Jagex - Runescape Theme tab

First tab, pretty good by all standards...

Tuning: Standard
 Key:
#A/#B = Strum A, slide to B
#A/   = Strum A, slide off without stopping at any frets
~     = Hold the note a bit longer

AND READ THE SIDE NOTES SOME ARE IMPORTANT -----------------------------
                                                                       V

e|----------------------------------------------9-1/4/2/6/3/10/4/---|
B|------------------------------------------------------------------|
G|-----------------------7-11-12~--11-10-9-8-7-7--------------------|
D|7-11-12~--11-10-9-8-7-7-------------------------------------------|
A|------------------------------------------------------------------|
E|------------------------------------------------------------------|

e|----------------------------------------------------|
B|9-11-10-9-8-9-11-10-9-8-9-11-10-9-8-9-11-10-9-8-----|
G|9-----------9-----------9-----------9---------------|
D|----------------------------------------------------| Rhythm actually does
A|----------------------------------------------------|     this through the 
E|------------------------------------------------9999|    whole thing....

e|----------------------------------------------------|
B|9-11-10-9-8-9-11-10-9-8-9-11-10-9-8-9-11-10-9-8-----|
G|9-----------9-----------9-----------9---------------|
D|----------------------------------------------------|
A|----------------------------------------------------|
E|----------------------------------------------------|

e|-----------------------------------------------------------|
B|7-11-12~--11-10-9-8-7-7~--6-7-10-11-12-13b14~r-------------|
G|-----------------------------------------------------------|
D|-----------------------------------------------------------|
A|-----------------------------------------------------------| trumpets on
E|-----------------------------------------------11-11-12-13-| guitar = godly

e|10h12p10h12p10h12p10h12p10h12p10h12|
B|-----------------------------------| IMPORTANT : This is a trill! 
G|-----------------------------------| 
D|-----------------------------------|
A|-----------------------------------|
E|-----------------------------------|


I'll get more done soon enough...
Tap to rate this tab
# A B C D E F G H I J K L M N O P Q R S T U V W X Y Z