Song name
# A B C D E F G H I J K L M N O P Q R S T U V W X Y Z

Misc - Minnesota Rouser tab

I was bored so i tabbed my skool's fight song. Enjoy. If u want an mp3 of it, pm me and 
send u one.

e|-5-5-5-5-5---5-8----------|
B|----------6---------------|
G|--------------------------|
D|--------------------------|
A|--------------------------|
E|--------------------------|

   1 2 3 4 1 & 2 3 & 4 &

e|-3-3-3-3-3-8-7-5-3-8-7----|
B|--------------------------|
G|--------------------------|
D|--------------------------|
A|--------------------------|
E|--------------------------|


e|-5-5-5-5-5---5-8----------|
B|----------6---------------|
G|--------------------------|
D|--------------------------|
A|--------------------------|
E|--------------------------|


e|--------------------------|
B|-3-1-1--3-1-1--1-1-1-0-0--|
G|--------------------------|
D|--------------------------|
A|--------------------------|
E|--------------------------|


e|--------------------------|
B|-7\1/7--7-----------------|
G|--------------------------|
D|--------------------------|
A|--------------------------|
E|--------------------------|
Tap to rate this tab
 
# A B C D E F G H I J K L M N O P Q R S T U V W X Y Z