Song name
# A B C D E F G H I J K L M N O P Q R S T U V W X Y Z

Misc - C Blues Riffs tab

First tab I've done, would appreciate suggestions/criticism.
Just a short solo I wrote for a song in C Blues.


e:---------5------|----------------|
B:-5-6-7-8----4s5-|----------------|
G:----------------|-5-----5~~~~----|
D:----------------|---7------------|
A:----------------|----------------|
E:----------------|----------------|

e:----------------|----------------|
B:-----5----------|----------------|
G:-5h6---7-5------|----------------|
D:-----------7---5|-5h7~~~~--------|
A:-------------7--|----------------|
E:----------------|----------------|

e:-------5--------|----------------|
B:-----5---8p5----|----------------|
G:-5h6---------7-5|---5~--7b-5~~---|
D:----------------|-7--------------|
A:----------------|----------------|
E:----------------|----------------|

e:----------------|----------------|
B:-----5----------|----------------|
G:-5h6---7-5------|----------------|
D:-----------7---5|-5h7~~~~--------|
A:-------------7--|----------------|
E:----------------|----------------|

e:---------8-8p5--|-8-8p5----------|----------------|
B:-----5---------8|-------8-5---5~-|-5-8b-5~~~~-----|
G:-5h6------------|-----------7----|----------------|
D:----------------|----------------|----------------|
A:----------------|----------------|----------------|
E:----------------|----------------|----------------|

e:-8p5------------|----------------|
B:-----8-5--------|----------------|
G:---------7-5---5|----------------|
D:-------------7--|-5-5h7~~--------|
A:----------------|----------------|
E:----------------|----------------|


~ =Vibrato
p =Pull off
h =hammer on
b =bend

Standard Tuning
Tap to rate this tab
# A B C D E F G H I J K L M N O P Q R S T U V W X Y Z