Song name
# A B C D E F G H I J K L M N O P Q R S T U V W X Y Z

Misc - Hammer-onpull-off Practice tab

This song is a great way to practice hammer-ons and pull-offs. It's really challenging, 
if you work on it, you'll get it. It took me a long time to write, so please, rate 
Oh, and in the tab at a few points, it got kind of screwed up, and i cant figure
out how to fix it, so just try to live with it. HAVE FUN!!!!!

      S   S  S  S   S  S  S   S  S  S   S  S  S   S  S  S
E||-------------------------------------------------------|
B||--16p-14----16p-14----16p-14----16p-14----16p-14----14-|
G||---------15--------15--------15--------15--------15----|
D||-------------------------------------------------------|
A||-------------------------------------------------------|
E||-------------------------------------------------------|


   S  S   S  S  S   S  S  S   S  S  S   S  S  S   S  S
-------------------------------------------------------|
---L-16p-14----16p-14----16p-14----16p-14----16p-14----|
------------15--------15--------15--------15--------15-|
-------------------------------------------------------|
-------------------------------------------------------|
-------------------------------------------------------|


   S  S   S  S  S   S  S  S   S  S  S   S  S  S   S  S
-------------------------------------------------------|
--14-18p-14----18p-14----18p-14----18p-14----18p-14----|
------------15--------15--------15--------15--------15-|
-------------------------------------------------------|
-------------------------------------------------------|
-------------------------------------------------------|


   S  S   S  S  S   S  S  S   S  S  S   S  S  S   S  S
-------------------------------------------------------|
--14-18p-14----18p-14----18p-14----18p-14----18p-14----|
------------15--------15--------15--------15--------15-|
-------------------------------------------------------|
-------------------------------------------------------|
-------------------------------------------------------|


   S  S   S  S  S   S  S  S   S  S  S   S  S  S   S  S
-------------------------------------------------------|
--14-19p-14----18p-14----16p-14----18p-14----19p-14----|
------------15--------15--------15--------15--------15-|
-------------------------------------------------------|
-------------------------------------------------------|
-------------------------------------------------------|


   T          T          T          T          T
   S   S   S  S   S   S  S   S   S  S   S   S  S   S   S   S
-------------------------------------------------------------|
--16p-11h-14-16p-11h-14-16p-11h-14-16p-11h-14-16p-11h-14h-16-|
-------------------------------------------------------------|
-------------------------------------------------------------|
-------------------------------------------------------------|
-------------------------------------------------------------|


   T          T          T          T          T
   S   S   S  S   S   S  S   S   S  S   S   S  S   S   S   S
-------------------------------------------------------------|
--18p-11h-14-18p-11h-14-18p-11h-14-18p-11h-14-18p-11h-14h-18-|
-------------------------------------------------------------|
-------------------------------------------------------------|
-------------------------------------------------------------|
-------------------------------------------------------------|


   T          T          T          T          T
   S   S   S  S   S   S  S   S   S  S   S   S  S   S   S   S
-------------------------------------------------------------|
--19p-11h-14-19p-11h-14-19p-11h-14-19p-11h-14-19p-11h-14h-19-|
-------------------------------------------------------------|
-------------------------------------------------------------|
-------------------------------------------------------------|
-------------------------------------------------------------|


   T          T          T          T          T
   S   S   S  S   S   S  S   S   S  S   S   S  S   S   S   S
-------------------------------------------------------------|
--19p-11h-14-18p-11h-14-16p-11h-14-18p-11h-14-19p-11h-14h-19-|
-------------------------------------------------------------|
-------------------------------------------------------------|
-------------------------------------------------------------|
-------------------------------------------------------------|


   T          T          T          T          T
   S   S   S  S   S   S  S   S   S  S   S   S  S   S   S   S
-------------------------------------------------------------|
--19p-11h-14-18p-11h-14-16p-11h-14-18p-11h-14-19p-11h-14h-19-|
-------------------------------------------------------------|
-------------------------------------------------------------|
-------------------------------------------------------------|
-------------------------------------------------------------|


   S   S   S  S   S   S  S   S   S  S   S   S  S   S   S  S
------------------------------------------------------------|
--19p-18p-16-19p-18p-16-19p-18p-16-19p-18p-16-19p-18p-16----|
------------------------------------------------------------|
---------------------------------------------------------13-|
------------------------------------------------------------|
------------------------------------------------------------|


   S  S  S  S  S  S  S  S  S  S  S  S  S  S  S  S
--------------------------------------------------|
--------------------------------------------------|
--------------------------------------------------|
--------------------------------------------------|
--------------------------------------------------|
--11-14-11-13-11-16-11-14-11-18-11-16-11-19-11-18-|


   S  S  S  S  S  S  S  S  S  S  S  S  S  S  S  S
--------------------------------------------------|
--------------------------------------------------|
--------------------------------------------------|
--------------------------------------------------|
--------------------------------------------------|
--13-16-13-15-13-18-13-16-13-20-13-18-13-21-13-20-|


   S  S  S  S  S  S  S  S  S  S  S  S  S  S  S  S
--------------------------------------------------|
--------------------------------------------------|
--------------------------------------------------|
--------------------------------------------------|
--10-13-10-12-10-15-10-13-10-17-10-15-10-18-10-17-|
--------------------------------------------------|


   S  S  S  S  S  S  S  S  S  S  S  S  S  S  S  S
--------------------------------------------------|
--------------------------------------------------|
--------------------------------------------------|
--------------------------------------------------|
--12-15-12-14-12-17-12-15-12-17-12-15-11-19-11-17-|
--------------------------------------------------|


   S  S  S  S  S  S  S  S  S  S  S  S  S  S  S  S
--------------------------------------------------|
--------------------------------------------------|
--------------------------------------------------|
--------------------------------------------------|
--17-11-19-11-17-12-19-12-15-12-17-12-14-12-15-12-|
--------------------------------------------------|


   S  S  S  S  S  S  S  S  S  S  S  S  S  S  S  S
--------------------------------------------------|
--------------------------------------------------|
--------------------------------------------------|
--------------------------------------------------|
--17-10-18-10-15-10-17-10-13-10-15-10-12-10-13-10-|
--------------------------------------------------|


   S  S  S  S  S  S  S  S  S  S  S  S  S  S  S  S
--------------------------------------------------|
--------------------------------------------------|
--------------------------------------------------|
--------------------------------------------------|
--------------------------------------------------|
--20-13-21-13-18-13-20-13-16-13-18-13-15-13-16-13-|


   S  S  S  S  S  S  S  S  S  S  S  S  S  S  S  S
--------------------------------------------------|
--------------------------------------------------|
--------------------------------------------------|
--------------------------------------------------|
--------------------------------------------------|
--18-11-19-11-16-11-18-11-14-11-16-11-13-11-14-11-|


  S S S S S S S S S S S S S  S S  S
------------------------------------|
------------------------------------|
------------------------------------|
------------------------------------|
------------------------------------|
--1-4-1-5-2-6-3-7-4-8-5-9-6-10-7-11-|


  S  S S  S  S  S  S  S  S  S  S  S  S  S  S  S
------------------------------------------------|
------------------------------------------------|
------------------------------------------------|
------------------------------------------------|
------------------------------------------------|
--8-12-9-13-10-14-11-15-12-16-13-17-14-18-15-19-|


  S S S S S S S S S S S S S  S S  S
------------------------------------|
------------------------------------|
------------------------------------|
------------------------------------|
------------------------------------|
--1-4-1-5-2-6-3-7-4-8-5-9-6-10-7-11-|


  S  S S  S  S  S  S  S  S  S  S  S  S  S  S  S
------------------------------------------------|
------------------------------------------------|
------------------------------------------------|
------------------------------------------------|
------------------------------------------------|
--8-12-9-13-10-14-11-15-12-16-13-17-14-18-15-19-|


   T  T  T  T  T  T  T  T  T  T  T  T  T T T T T T T T T T T T T T T T T T T T
-------------------------------------------------------------------------------|
-------------------------------------------------------------------------------|
-------------------------------------------------------------------------------|
-------------------------------------------------------------------------------|
-------------------------------------------------------------------------------|
--22-21-20-19-18-17-16-15-14-13-12-11-10-9-8-7-6-5-4-3-2-1-0-1-0-1-0-2-1-3-2-4-|


  T T T T  T  T  T  T  T  T  T  T  T  T  T  T S S S S S S S  S
---------------------------------------------------------------|
---------------------------------------------------------------|
---------------------------------------------------------------|
---------------------------------------------------------------|
---------------------------------------------------------------|
--5-6-8-9-10-11-12-13-14-15-16-17-18-19-20-21-3-4-5-6-7-8-9-10-|


   E   E   S  S  S  S  S  S  S  S  S  S  S  S
----------18-16----20-16----18-16----20-16----|
--16--16--------16-------16-------16-------16-|
----------------------------------------------|
----------------------------------------------|
----------------------------------------------|
----------------------------------------------|


   E   E   S  S  S  S  S  S  S  S  S  S  S  S
----------18-16----20-16----21-16----20-16----|
--16--16--------16-------16-------16-------16-|
----------------------------------------------|
----------------------------------------------|
----------------------------------------------|
----------------------------------------------|


   S  S  S  S  S  S  S  S  S  S  S  S  S  S  S  S
--------------------------------------------------|
--16-14----16-14----14-13----14-13----16-14-14-13-|
--------15-------15-------14-------14-------------|
--------------------------------------------------|
--------------------------------------------------|
--------------------------------------------------|


   S  S  S  S  S  S  S  S  S  S  S  S  S  S  S  S
--------------------------------------------------|
--16-14----16-14----14-13----14-13----16-14-14-13-|
--------15-------15-------14-------14-------------|
--------------------------------------------------|
--------------------------------------------------|
--------------------------------------------------|


   S  S  S  S  S  S  S  S  S  S  S  S  S  S  S  S
--------------------------------------------------|
--16-14----17-15----18-16----19-17----20-18----21-|
--------15-------16-------17-------18-------19----|
--------------------------------------------------|
--------------------------------------------------|
--------------------------------------------------|


   S  S  S  S  Q      Q      Q
-----------------------------------|
--19----22-22-22b----22b----22b----|
-----20----------------------------|
-----------------------------------|
-----------------------------------|
-----------------------------------|


   S  S  S  S  S  S  S  S  S  S  S  S  S  S  S  S
--------------------------------------------------|
--22-20----21-19----20-18----19-17----18-16----17-|
--------21-------20-------19-------18-------17----|
--------------------------------------------------|
--------------------------------------------------|
--------------------------------------------------|


   S  S  S  S  S  S  S  S  S  S  S  S  S  S  S  S
--------------------------------------------------|
--15----16-14----15-13----14-12----13-11----12-10-|
-----16-------15-------14-------13-------12-------|
--------------------------------------------------|
--------------------------------------------------|
--------------------------------------------------|


   S  S S  S  S S S S S S S S S S S S    S S S S S S S S S S S S S S S S
--------------------------------------|--------------------------------3-|
-----11-9----10-8---9-7---8-6---7-5---|--6-4---5-3---4-2---3-1---2-0-----|
--11------10------9-----8-----7-----6-|------5-----4-----3-----2-----1---|
--------------------------------------|----------------------------------|
--------------------------------------|----------------------------------|
--------------------------------------|----------------------------------|


                                          |-----3-----|     |-----3----|
  S S S S S S S S S S S S S S  S S        Q     Q     Q     Q    Q     Q
----4---6---6---6---6---6---6----6--||--------------------------------------|
------------------------------------||--------------------------------------|
--2---3---3---5---3---6---8---10---*||*-------------------------------------|
-----------------------------------*||*--13----12----11----10----9----10----|
------------------------------------||---13----12----11----10----9----10----|
------------------------------------||---11----10-----9-----8----7-----8----|


   S S S  S S S  S S S  S S S  S S S  S
----------------------------------------|
--12-5-7-12-5-7-14-5-7-14-5-7-15-5-7-15-|
----------------------------------------|
----------------------------------------|
----------------------------------------|
----------------------------------------|


  S S  S S S  S S S  S S S  S S S  S S
---------------------------------------|
--5-7-14-5-7-14-5-7-12-5-7-12-5-7-12-7-|
---------------------------------------|
---------------------------------------|
---------------------------------------|
---------------------------------------|


   S S S  S S S  S S S  S S S  S S S  S    S S  S S S  S S S  S S S  S S S S S
----------------------------------------|--------------------------------------|
--12-5-8-12-5-8-14-5-8-14-5-8-15-5-8-15-|--5-8-14-5-8-14-5-8-12-5-8-12-5-8-5-8-|
----------------------------------------|--------------------------------------|
----------------------------------------|--------------------------------------|
----------------------------------------|--------------------------------------|
----------------------------------------|--------------------------------------|


   S S S  S S S  S S S  S S S  S S S  S
----------------------------------------|
--12-5-7-12-5-7-14-5-7-14-5-7-15-5-7-15-|
----------------------------------------|
----------------------------------------|
----------------------------------------|
----------------------------------------|


  S S  S S S  S S S  S S S  S S S  S S
---------------------------------------|
--5-7-14-5-7-14-5-7-12-5-7-12-5-7-12-7-|
---------------------------------------|
---------------------------------------|
---------------------------------------|
---------------------------------------|


   S S S  S S S  S S S  S S S  S S S  S
----------------------------------------|
--12-5-8-12-5-8-14-5-8-14-5-8-15-5-8-15-|
----------------------------------------|
----------------------------------------|
----------------------------------------|
----------------------------------------|


  S S  S S S  S S S  S S S  S S S  S S
---------------------------------------|
--5-8-14-5-8-14-5-8-12-5-8-12-5-8-12-8-|
---------------------------------------|
---------------------------------------|
---------------------------------------|
---------------------------------------|


  S S S  S S S  S  S S  S  S  S  S  S  S  S
--------------------------------------------|
--5-7-8-10-7-8-10-12-8-10-12-13-10-12-13-15-|
--------------------------------------------|
--------------------------------------------|
--------------------------------------------|
--------------------------------------------|


   S  S  S  S  S  S  S  S  S  S  S  S  S  S  S  S
--------------------------------------------------|
--16-15-16-15-16-15-16-15-16-15-16-15-16-15-16-15-|
--------------------------------------------------|
--------------------------------------------------|
--------------------------------------------------|
--------------------------------------------------|


   S  S  S  S  S  S  S  S  S  S  S  S  S  S  S  S
--------15----------16----------18----------20----|
--16-15----15-16-15----15-16-15----15-16-15----15-|
--------------------------------------------------|
--------------------------------------------------|
--------------------------------------------------|
--------------------------------------------------|


   S  S  S  S  S  S  S   S  S  S  S  S  S  S  S  S
--------22----------22b-23-23-23-23-23-23-23-23-23-|
--16-15----15-16-15--------------------------------|
---------------------------------------------------|
---------------------------------------------------|
---------------------------------------------------|
---------------------------------------------------|


   S  S  S  S  S  S  S  S  S  S  S  S  S  S  S  S
--------15----------16----------18----------20----|
--16-15----15-16-15----15-16-15----15-16-15----15-|
--------------------------------------------------|
--------------------------------------------------|
--------------------------------------------------|
--------------------------------------------------|


   S  S  S  S  S  S  S  S  S  S  S  S  S  S  S  S
--------22----------23----------------------------|
--16-15----15-16-15----15-16-15-13-15-16-15-13-12-|
--------------------------------------------------|
--------------------------------------------------|
--------------------------------------------------|
--------------------------------------------------|


   S  S  S  S  S  S  S  S  S  S  S  S  S  S  S  S
--------15----------16----------18----------20----|
--16-15----15-16-15----15-16-15----15-16-15----15-|
--------------------------------------------------|
--------------------------------------------------|
--------------------------------------------------|
--------------------------------------------------|


   S  S  S  S  S  S  S   S  S  S  S  S  S  S  S  S
--------22----------22b-23-23-23-23-23-23-23-23-23-|
--16-15----15-16-15--------------------------------|
---------------------------------------------------|
---------------------------------------------------|
---------------------------------------------------|
---------------------------------------------------|


   S  S  S  S  S  S  S  S  S  S  S  S  S  S  S  S
--------15----------16----------18----------20----|
--16-15----15-16-15----15-16-15----15-16-15----15-|
--------------------------------------------------|
--------------------------------------------------|
--------------------------------------------------|
--------------------------------------------------|


   S  S  S  S  S  S  S  S  S  S  S  S  S  S  S  S
--------22----------23----------------------------|
--16-15----15-16-15----15-16-15-13-15-16-15-13-12-|
--------------------------------------------------|
--------------------------------------------------|
--------------------------------------------------|
--------------------------------------------------|


   S  S  S  S  S  S  S  S  S  S  S  S  S  S  S  S
-----------------------------------14-------15----|
--------------------------14----13-------14-------|
-----------------14----13----12-------13----------|
--------14----13----12-------------------------13-|
-----13----12-------------------------------------|
--12----------------------------------------------|


   S  S  S  S  S  S  S  S  S  S  S  S  S  S  S  S
--------------16----------------------------------|
-----15----15----------16-------------------------|
--14----14----------15-------------------16----15-|
-----------------14-------------16----15----14----|
-----------------------------15----14-------------|
--------------------------14----------------------|


   S  S  S  S  S  S  S  S  S  S  S  S  S  S  S  S
-----------16-------17-------18-------19-------20-|
--16----15-------16-------17-------18-------19----|
-----14-------15-------16-------17-------18-------|
--------------------------------------------------|
--------------------------------------------------|
--------------------------------------------------|


   S  S  S  S  S  S  S  S  S  S  S  S  S  S  S  S
--22-21-19-22-21-19-22-21-19-22-21-19-22-21-19-21-|
--------------------------------------------------|
--------------------------------------------------|
--------------------------------------------------|
--------------------------------------------------|
--------------------------------------------------|


   S  S  S  S  S  S  S  S  S  S  S  S  S  S  S  S
--22-21-19-22-21-19-22-21-19-22-21-19-22-21-19-21-|
--------------------------------------------------|
--------------------------------------------------|
--------------------------------------------------|
--------------------------------------------------|
--------------------------------------------------|


   S  S  S  S  S  S  S  S  S  S  S  S  S  S  S  S
--22-20-------19-------18-------17-------16-------|
--------19-------18-------17-------16-------15----|
-----------18-------17-------16-------15-------14-|
--------------------------------------------------|
--------------------------------------------------|
--------------------------------------------------|


   S  S  S  S  S  S  S  S  S  S  S  S  S  S  S  S
--------------------------------------16----------|
--16-------------------------16----------15----15-|
-----15----16-------------------15----------14----|
--------14----15----16-------------14-------------|
-----------------14----15-------------------------|
--------------------------14----------------------|


   S  S  S  S  S  S  S  S  S  S  S  S  S  S  S  S
--------15-------14-------------------------------|
-----------14-------13----14----------------------|
--14----------13-------12----13----14-------------|
-----13-------------------------12----13----14----|
-----------------------------------------12----13-|
--------------------------------------------------|


   S  S  S  S  S  S  S  S  S  S  S  S  S  S  S  S
--------------------------------------------------|
--------------------------------------------------|
--------------------------------------------------|
-----------15----------15----------15----------15-|
--------------------------------------------------|
--12-13-13----13-13-13----13-13-13----13-13-13----|


   S  S  S  S  S  S  S  S  S  S  S  S  S  S  S  S
--------------------------------------------------|
--------------------------------------------------|
--------------------------------------------------|
-----------------------------------------20-------|
--------------------------------------------------|
--14-14-14-14-13-13-13-13-14-14-14-16-18----18-18-|


   S  S  S  S  S  S  S  S  S  S  S  S  S  S  S  S
--------------------------------------------------|
--------------------------------------------------|
--------------------------------------------------|
--------------------------------------------------|
--------------------------------------------------|
--18-16-14-13-18-16-14-13-18-16-14-13-18-16-14-13-|


   S  S  S  S  S  S  S  S  S  S  S  S  S  S  S  S
--------------------------------------------------|
--------------------------------------------------|
--------------------------------------------------|
--------------------------------------------------|
--------------------------------------------------|
--18-16-14-13-18-16-14-13-18-16-14-13-18-16-14-13-|


   S  S  S  S  S  S  S  S  S  S  S  S  S  S  S  S
-----------------------------------14-------15----|
--------------------------14----13-------14-------|
-----------------14----13----12-------13----------|
--------14----13----12-------------------------13-|
-----13----12-------------------------------------|
--12----------------------------------------------|


   S  S  S  S  S  S  S  S  S  S  S  S  S  S  S  S
--------------16----------------------------------|
-----15----15----------16-------------------------|
--14----14----------15-------------------16----15-|
-----------------14-------------16----15----14----|
-----------------------------15----14-------------|
--------------------------14----------------------|


   S  S  S  S  S  S  S  S  S  S  S  S  S  S  S  S
-----------16-------17-------18-------19-------20-|
--16----15-------16-------17-------18-------19----|
-----14-------15-------16-------17-------18-------|
--------------------------------------------------|
--------------------------------------------------|
--------------------------------------------------|


   S  S  S  S  S  S  S  S  S  S  S  S  S  S  S  S
--22-21-19-22-21-19-22-21-19-22-21-19-22-21-19-21-|
--------------------------------------------------|
--------------------------------------------------|
--------------------------------------------------|
--------------------------------------------------|
--------------------------------------------------|


   S  S  S  S  S  S  S  S  S  S  S  S  S  S  S  S
--22-21-19-22-21-19-22-21-19-22-21-19-22-21-19-21-|
--------------------------------------------------|
--------------------------------------------------|
--------------------------------------------------|
--------------------------------------------------|
--------------------------------------------------|


   S  S  S  S  S  S  S  S  S  S  S  S  S  S  S  S
--22-20-------19-------18-------17-------16-------|
--------19-------18-------17-------16-------15----|
-----------18-------17-------16-------15-------14-|
--------------------------------------------------|
--------------------------------------------------|
--------------------------------------------------|


   S  S  S  S  S  S  S  S  S  S  S  S  S  S  S  S
--------------------------------------16----------|
--16-------------------------16----------15----15-|
-----15----16-------------------15----------14----|
--------14----15----16-------------14-------------|
-----------------14----15-------------------------|
--------------------------14----------------------|


   S  S  S  S  S  S  S  S  S  S  S  S  S  S  S  S
--------15-------14-------------------------------|
-----------14-------13----14----------------------|
--14----------13-------12----13----14-------------|
-----13-------------------------12----13----14----|
-----------------------------------------12----13-|
--------------------------------------------------|


   S  S  S  S  S  S  S  S  S  S  S  S  S  S  S  S
--------------------------------------------------|
--------------------------------------------------|
--------------------------------------------------|
-----------15----------15----------15----------15-|
--------------------------------------------------|
--12-13-13----13-13-13----13-13-13----13-13-13----|


   T  T  T  T T T T T T T T T T T T T T T T T T T T  T  T  T  T  T  T  T  T  T
-------------------------------------------------------------------------------|
-------------------------------------------------------------------------------|
-------------------------------------------------------------------------------|
-------------------------------------------------------------------------------|
-------------------------------------------------------------------------------|
--13-12-11-10-9-8-7-6-5-4-3-2-1-0-1-2-3-4-5-6-7-8-9-10-11-12-13-14-15-16-17-18-|


  S S S S S S S S S S S S S S S S    S S S S S S S S S S S S S S S S
----------------------------------|----------------------------------|
----------------------------------|----------------------4---4-6-4-6-|
----------------------------------|--------4-5-7-5-4-5-7---7---------|
----------------------------------|----5-7---------------------------|
------5-6-----5-6-----5-6-----5-6-|--7-------------------------------|
--5-8-----5-8-----5-8-----5-8-----|----------------------------------|


  S S S S S S S S S S S S S S S S    S S S S S S S S S S S S S S S S
----4-6-4-6-7-6-4-6-7-6-4-7-6-4-3-|--8-5-----------------------------|
--7-------------------------------|------8-5-------------------------|
----------------------------------|----------7-5---------------------|
----------------------------------|--------------7-5-----------------|
----------------------------------|------------------7-5-------6---7-|
----------------------------------|----------------------8-5-4---4---|


  S S S S S S S S S S S S S S S S    S S S S S S S  S S S S S  S S S S
----------------------------------|------------------------------------|
----------------------------------|------------------------------------|
----------------------------------|------------------------------------|
----------------6-7-8-9-8-7-6-----|---------------------7-8-9-10-9-8-7-|
----6---7---9-------------------7-|----8---7---8---10------------------|
--4---4---4---4---------------5---|--5---5---5---5----5----------------|


  S S S S S S S S S S S S S S S S    S S S S S S S  S S S S S  S S S S
----------------------------------|------------------------------------|
----------------------------------|------------------------------------|
----------------------------------|------------------------------------|
----------------6-7-8-9-8-7-6-----|---------------------7-8-9-10-9-8-7-|
----6---7---9-------------------7-|----8---7---8---10------------------|
--4---4---4---4---------------5---|--5---5---5---5----5----------------|


   T  T  T  T  T  T  T  T  T  T  T  T  T  T  T  T  T  T  T  T  T  T  T  T  T  T
--------------------------------------------------------------------------------|
--12-13-15-13-12-------------------------12-13-15-14-13-14-15-14-13-14-15-14-13-|
-----------------15-13-12-15-13-12-13-15----------------------------------------|
--------------------------------------------------------------------------------|
--------------------------------------------------------------------------------|
--------------------------------------------------------------------------------|


   S  S  S  S  S  S  S  S  S  S  S  S  S  S  S  S
--18-18-17-18----18-17-18----18-17-18----18-17-18-|
--------------18----------18----------18----------|
--------------------------------------------------|
--------------------------------------------------|
--------------------------------------------------|
--------------------------------------------------|


   S  S  S  S  S  S  S  S  S  S  S  S  S  S  S  S
--17-18-17-18-17-18-17-18-20-18-17-18-17----------|
-----------------------------------------18-17-18-|
--------------------------------------------------|
--------------------------------------------------|
--------------------------------------------------|
--------------------------------------------------|


   S  S  S  S  S  S  S  S  S  S  S  S  S  S  S  S
---------------------------------------------------||
--18-15--------------------------------------------||
--------18-17-16----------------------------------*||
-----------------18-17-16-------------------------*||
--------------------------18-17-16-----------------||
-----------------------------------18-17-16-18-16--||


   T  T  T  T T T T T T T T T T T T T T T T T T T T  T  T  T  T  T  T  T  T  T
-------------------------------------------------------------------------------|
-------------------------------------------------------------------------------|
-------------------------------------------------------------------------------|
-------------------------------------------------------------------------------|
-------------------------------------------------------------------------------|
--13-12-11-10-9-8-7-6-5-4-3-2-1-0-1-2-3-4-5-6-7-8-9-10-11-12-13-14-15-16-17-18-|


   S  S  S  S  S  S  S  S  S  S  S  S  S  S  S  S
--------------------------------------------------|
--------------------------------------------------|
--------------------------------------------------|
--------------------------------------------------|
--------------------------------------------------|
--11-14-11-13-11-16-11-14-11-18-11-16-11-19-11-18-|


   S  S  S  S  S  S  S  S  S  S  S  S  S  S  S  S
--------------------------------------------------|
--------------------------------------------------|
--------------------------------------------------|
--------------------------------------------------|
--------------------------------------------------|
--13-16-13-15-13-18-13-16-13-20-13-18-13-21-13-20-|


   S  S  S  S  S  S  S  S  S  S  S  S  S  S  S  S
--------------------------------------------------|
--------------------------------------------------|
--------------------------------------------------|
--------------------------------------------------|
--10-13-10-12-10-15-10-13-10-17-10-15-10-18-10-17-|
--------------------------------------------------|


   S  S  S  S  S  S  S  S  S  S  S  S  S  S  S  S
--------------------------------------------------|
--------------------------------------------------|
--------------------------------------------------|
--------------------------------------------------|
--12-15-12-14-12-17-12-15-12-17-12-15-11-19-11-17-|
--------------------------------------------------|


   S  S  S  S  S  S  S  S  S  S  S  S  S  S  S  S
--------------------------------------------------|
--------------------------------------------------|
--------------------------------------------------|
--------------------------------------------------|
--17-11-19-11-17-12-19-12-15-12-17-12-14-12-15-12-|
--------------------------------------------------|


   S  S  S  S  S  S  S  S  S  S  S  S  S  S  S  S
--------------------------------------------------|
--------------------------------------------------|
--------------------------------------------------|
--------------------------------------------------|
--17-10-18-10-15-10-17-10-13-10-15-10-12-10-13-10-|
--------------------------------------------------|


   S  S  S  S  S  S  S  S  S  S  S  S  S  S  S  S
--------------------------------------------------|
--------------------------------------------------|
--------------------------------------------------|
--------------------------------------------------|
--------------------------------------------------|
--20-13-21-13-18-13-20-13-16-13-18-13-15-13-16-13-|


   S  S  S  S  S  S  S  S  S  S  S  S  S  S  S  S
--------------------------------------------------|
--------------------------------------------------|
--------------------------------------------------|
--------------------------------------------------|
--------------------------------------------------|
--18-11-19-11-16-11-18-11-14-11-16-11-13-11-14-11-|


  S S S S S S S S S S S S S  S S  S
------------------------------------|
------------------------------------|
------------------------------------|
------------------------------------|
------------------------------------|
--1-4-1-5-2-6-3-7-4-8-5-9-6-10-7-11-|


  S  S S  S  S  S  S  S  S  S  S  S  S  S  S  S
------------------------------------------------|
------------------------------------------------|
------------------------------------------------|
------------------------------------------------|
------------------------------------------------|
--8-12-9-13-10-14-11-15-12-16-13-17-14-18-15-19-|


  S S S S S S S S S S S S S  S S  S
------------------------------------|
------------------------------------|
------------------------------------|
------------------------------------|
------------------------------------|
--1-4-1-5-2-6-3-7-4-8-5-9-6-10-7-11-|


  S  S S  S  S  S  S  S  S  S  S  S  S  S  S  S    E  H.           E
------------------------------------------------|---------------------||
------------------------------------------------|---------------------||
------------------------------------------------|---------------------||
------------------------------------------------|--2--3------------L--||
------------------------------------------------|--2--3------------L--||
--8-12-9-13-10-14-11-15-12-16-13-17-14-18-15-19-|--0--1------------L--||


Duration Legend
---------------
W - whole
H - half
Q - quarter
E - 8th
S - 16th
T - 32nd
X - 64th
. - note dotted
|-n-|  - n-tuplets


Tablature Legend
----------------
L - tied note
x - dead note
g - grace note
(n) - ghost note
> - accentuded note
NH - natural harmonic
AH - artificial harmonic
TH - tapped harmonic
SH - semi harmonic
PH - pitch harmonic
h - hammer on
p - pull off
b - bend
br - bendRelease
pb - preBend
pbr - preBendRelease
brb - bendReleaseBend
\n/ - tremolo bar dip
\n - tremolo bar dive
-/n - tremolo bar Release up
/n\ - tremolo bar inverted dip
/n - tremolo bar return
-\n - tremolo bar Release down
S - shift slide
s - legato slide
/ -  slide into from below or out of upwards
\ -  slide into from above or out of downwards
~ - vibrato
W - wide vibrato
tr - trill
TP - tremolo picking
T - tapping
S - slap
P - pop
< - fade in
^ - brush up
v - brush down
Tap to rate this tab
# A B C D E F G H I J K L M N O P Q R S T U V W X Y Z