Song name
# A B C D E F G H I J K L M N O P Q R S T U V W X Y Z

Misc - Bluesy Riff tab

e|--------------11-13b-11-------------------------------------------|
B|-------11-13-------------13-11------------------------------------|
G|---12---------------------------13-12-9b--------------------------|
D|------------------------------------------------------------------|
A|------------------------------------------------------------------|
E|------------------------------------------------------------------|


e|--------------14-16b-14-------------------------------------------|
B|-------14-16-------------16-14------------------------------------|
G|---15---------------------------16-15-12b-------------------------|
D|------------------------------------------------------------------|
A|------------------------------------------------------------------|
E|------------------------------------------------------------------|

enjoy
Tap to rate this tab
# A B C D E F G H I J K L M N O P Q R S T U V W X Y Z