Song name
# A B C D E F G H I J K L M N O P Q R S T U V W X Y Z

Misc - Hurricos tab

This is a tab from Spyro 2: riptos rage

spyro the dragon
hurricos

----------------|---------|--------------------------------------|
-------s9-9-(11)|---------|-------11-9---------11 9--------------|
----------------|---7-10--|--8-10-------7-8-10-------------------|
----------------|-10----8-|--------------------------------------|
----------------|---------|--------------------------------------|
(4)h(6)---------|---------|--------------------------------------|

-----------------|--------|----11-9--------11-9-|----------------|
--------S9-9-----|---8-11-|--11------8-9-11-----|--------11-9----|
-----------------|-10----8|---------------------|-7-8-10---------|
-----------------|--------|---------------------|----------------|
-----------------|--------|---------------------|----------------|
(4)h(6)----------|--------|---------------------|----------------|
Tap to rate this tab
# A B C D E F G H I J K L M N O P Q R S T U V W X Y Z