Song name
# A B C D E F G H I J K L M N O P Q R S T U V W X Y Z

Misc - Guitar Pro 5 Theme tab

I worked out the little acoustic part played when you open up Guitar Pro 5, Have 
to play along to right before you learn a song :D

Jamie

e|--------0-2p0-------------------------------------0--2---------------|
B|------3-------3--------3-----3--3-----------0-2-3----3---------------|
G|----2-----------2----0-----0----0---------2----------2---------------|
D|--0-----------------------------0-------2------------0---------------|
A|-------------------3-----2------3-----0------------------------------|
E|---------------------------------------------------------------------|

OR

e|---------------------------------------------------------------------|
B|--------5-7p5------------------------------------5--7----------------|
G|------7-------7--------7-----7---7---------4-6-7----7----------------|
D|----7-----------7----5-----5-----5-------7----------7----------------|
A|--5----------------3-----2-------3-----7------------5----------------|
E|-------------------------------------5-------------------------------|
Tap to rate this tab
# A B C D E F G H I J K L M N O P Q R S T U V W X Y Z