Song name
# A B C D E F G H I J K L M N O P Q R S T U V W X Y Z

Misc - 5 Min - How To Play Guitar Super Fast tab

This is the tab for the video called "How to Play Guitar Super Fast" on this site.  I
really know who is playing but people are saying this is a Paul Gilbert lesson so for
i just put Paul Gilbert.  To watch the video, search "fast" in the video section of UG 
it should be the first one, unless similar videos are uploaded after this tab is posted.  I
this cause the video is kinda blurry so I couldn't really see what frets he was playing 
so if this helps anyone that's great.

The whole song is on two strings and is a good speed picking lick if you're a
player looking to further your progress with speed picking.  I'd recomend you get good at
picking before you try and play this.  Play the whole thing nonstop.

Every bar begins with a downstroke and ends with an upstroke

e|--------18-22-18-20-22-20-18-17-18-20-18-17---------|
B|18-20-22-----------------------------------20-18-16-|
G|----------------------------------------------------|
D|----------------------------------------------------|
A|----------------------------------------------------|
E|----------------------------------------------------|

The pattern then repeats but adjusts to the scale

e|--------15-18-15-17-18-17-15-13-15-17-15-13---------|
B|15-16-18-----------------------------------16-15-13-|
G|----------------------------------------------------|
D|----------------------------------------------------|
A|----------------------------------------------------|
E|----------------------------------------------------|

e|--------11-15-11-13-15-13-11-10-11-13-11-10---------|
B|11-13-15-----------------------------------13-11-10-|
G|----------------------------------------------------|
D|----------------------------------------------------|
A|----------------------------------------------------|
E|----------------------------------------------------|

e|--------8-11-8-10-11-10-8-6-8-10-8-6--------|
B|8-10-11------------------------------10-8-6-|
G|--------------------------------------------|
D|--------------------------------------------|
A|--------------------------------------------|
E|--------------------------------------------|

Then the pattern starts to ascend

e|--------5-8-5-6-8-6-5-6-8-10-8-6-------|
B|4-6-8---------------------------10-8-6-|
G|---------------------------------------|
D|---------------------------------------|
A|---------------------------------------|
E|---------------------------------------|

e|--------8-11-8-10-11-10-8-10-11-13-11-10---------|
B|8-10-11---------------------------------13-11-10-|
G|-------------------------------------------------|
D|-------------------------------------------------|
A|-------------------------------------------------|
E|-------------------------------------------------|

e|--------11-15-11-13-15-13-11-13-15-17-15-13---------|
B|11-13-15-----------------------------------16-15-13-|
G|----------------------------------------------------|
D|----------------------------------------------------|
A|----------------------------------------------------|
E|----------------------------------------------------|

e|--------15-18-15-17-18-17-15-17-18-20-18-17---------|
B|15-16-18-----------------------------------20-18-16-|
G|----------------------------------------------------|
D|----------------------------------------------------|
A|----------------------------------------------------|
E|----------------------------------------------------|

e|----------------------------------------------------|
B|-18~------------------------------------------------|
G|----------------------------------------------------|
D|----------------------------------------------------|
A|----------------------------------------------------|
E|----------------------------------------------------|

That's it.  I'm pretty sure it's 100% correct, but it might not be.  I figured out the
pattern by ear and then looked up the G minor scale and adjusted the notes.  If anyone
any corrections or anything, just comment.
Tap to rate this tab
# A B C D E F G H I J K L M N O P Q R S T U V W X Y Z