Guitaretab - guitar tabs
Song name
# A B C D E F G H I J K L M N O P Q R S T U V W X Y Z

Misc - Circus Theme tab

e|-------------------------------------------------------------------------------------|
B|-7-6-5-6-5-4-3-2-1-2---4-3-2-3-2-1---------------------------------------------------|
G|-----------------------------------4-3-2-3-------------------------------------------|
D|-------------------------------------------------------------------------------------|
A|-------------------------------------------------------------------------------------|
E|-------------------------------------------------------------------------------------|

e|-------------------------------------------------------------------------------------|
B|---------------------------------------------------2---------------------------------|
G|------------------------------------------3-4-5-6----4-2-----------------------------|
D|-------------7--------------------4-5-6-7--------------------------------------------|
A|-7--7-7-6-7-----7-7-6-7---5-6-7-8----------------------------------------------------|
E|-------------------------------------------------------------------------------------|

[ Tab from: http://www.guitaretab.com/m/misc/118481.html ]
Related for Circus Theme tab
Advertisement will be closed in 10 seconds