Song name
# A B C D E F G H I J K L M N O P Q R S T U V W X Y Z

Misc - Eidelweiss tab

#----------------------------------PLEASE NOTE---------------------------------#
#This file is the author's own work and represents their interpretation of the #
#song. You may only use this file for private study, scholarship, or research. #
#------------------------------------------------------------------------------##
From: kharding@lamar.ColoState.EDU (Karol Harding)

EIDELWEISS

Rogers & Hammerstein c-1959 (Sound of Music)
More EASY Tab by Karol Henderson Harding 1994
3/4 time = key of bf (F7, Ef, C7)
   

E|------1-|-8---|-6----1-|-----|--------|------1-|-3----|-1-----|
B|--3-----|-----|--------|-4---|-3----3-|-3--4---|---1--|-------|
G|--------|-----|-7------|-0---|-3------|-3--0---|-3----|-2--2--|
D|--------|-----|--------|-----|--------|--------|------|-------|
A|--1-----|-8---|-8------|-3---|-1------|----3---|-3----|-3-----|
E|--------|-----|--------|-----|--------|-3------|------|-------|
    Ei-del-weiss, Ei-del-weiss, Every    morning you greet me.

E|------1-|-8---|-6----1-|-----|------1-|-1-3-5--|-6----|-6-----|
B|--3-----|-----|--------|-4---|-3------|--------|------|---6-6-|
G|--------|-----|-7------|-0---|-3------|--------|-7--7-|-7--7--|
D|--------|-----|--------|-----|--------|-----3--|---8--|-------|
A|--1-----|-8---|-8------|-3---|-1------|-3------|-8----|-8-----|
E|--------|-----|--------|-----|--------|--------|------|-------|
   Small and white,clean & bright,you look happy  to meet me.

E|--8---1-1-|-5--3-1-|------1-|-6---|-3---6-|-8---6-|--5---|--1---|
B|----------|--------|-3------|-----|-------|-------|--6---|--3---|
G|--8-------|--------|-3------|-7---|-------|-------|------|------|
D|----------|-3------|--------|-----|-1-----|-------|------|------|
A|--8-------|--------|-1------|-8---|-------|-8-----|--8---|--2---|
E|----------|--------|--------|-----|-------|-------|------|------|
   Blossom of snow may you bloom & grow/bloom & grow for-ever.
    
E|------1-|-8---|-6----1-|-----|--------|------1-|-3----|-1-----|
B|--3-----|-----|--------|-4---|-3----3-|-3--4---|---1--|-------|
G|--------|-----|-7------|-0---|-3------|-3--0---|-3----|-2--2--|
D|--------|-----|--------|-----|--------|--------|------|-------|
A|--1-----|-8---|-8------|-3---|-1------|----3---|-3----|-3-----|
E|--------|-----|--------|-----|--------|-3------|------|-------|
    Ei-del-weiss, Ei-del-weiss, Bless my homeland for-ever    





Tap to rate this tab
# A B C D E F G H I J K L M N O P Q R S T U V W X Y Z