Song name
# A B C D E F G H I J K L M N O P Q R S T U V W X Y Z

Misc - The Star Spangled Banner tab

-----------------------------------------------------------------------------
			     The National Anthem - The Forefathers
-----------------------------------------------------------------------------
Tabbed by: ryebread646
Email: peacechucks101@yahoo.com
Tuning: Standard
Hey guys, it's my first time tabbing so give me as much feedback as i need.
It's sounds better if you don't use a pick, just thumb it. Well here you go. God bless 
and Abe Lincon and stuff.

e|---------------------------------------------------------------------------|
B|---------9---13-11-9---------------13-11-9-8-------------------------------|
G|9-6--6-9-------------6-8-9---9-9-9-----------11-13-14-14--9-6--------------|
D|----7---------------------------------------------------------7------------|
A|---------------------------------------------------------------------------|
E|---------------------------------------------------------------------------|

e|---------------------------------------------------------------------------|
B|---------9---13-11-9---------------13-11-9-8-------------------------------|
G|9-6--6-9-------------6-8-9---9-9-9-----------11-13-14-14--9-6--------------|
D|----7---------------------------------------------------------7------------|
A|---------------------------------------------------------------------------|
E|---------------------------------------------------------------------------|

e|---------------------------------------------------------------------------|
B|13-13-13-14-16-16--14-13-11-13-14-14--14-13-11-9-8-------------------------|
G|---------------------------------------------------11-13-14-6-8-9----------|
D|---------------------------------------------------------------------------|
A|---------------------------------------------------------------------------|
E|---------------------------------------------------------------------------|

e|---------------------------------------------------------------------------|
B|--9-9-9-8-6-6-6-11-14\13-11-9-9-8---------9-11-13-14-16--------------------|
G|9-----------------------------------9-9-9----------------------------------|
D|---------------------------------------------------------------------------|
A|---------------------------------------------------------------------------|
E|---------------------------------------------------------------------------|

e|---------------------------------------------------------------------------|
B|9-11-13-14-11-9------------------------------------------------------------|
G|---------------------------------------------------------------------------|
D|---------------------------------------------------------------------------|
A|---------------------------------------------------------------------------|
E|---------------------------------------------------------------------------|

| /  slide up
| \  slide down
| h  hammer-on
| p  pull-off
| ~  vibrato
| +  harmonic
| x  Mute note
=============================================================================
Tap to rate this tab
# A B C D E F G H I J K L M N O P Q R S T U V W X Y Z