Song name
# A B C D E F G H I J K L M N O P Q R S T U V W X Y Z

Misc - Geordie tab

Fabrizio De Andr - Geordie

bubu_piacenza

Ciao, per suggerimenti o correzioni scrivetemi a clarkshelper@yahoo.it

E-------------------------------------------------------------------------- \
B-11------11-10------10-8-----8-6-----6-----4---4-4--3--1------------------  |
G----0----------0-----------------8---------3---3-3--3--2------------------  |
D------12---------12------7-8-------8-------5---5-5--5--3------------------  |
A-------------------------------------------3---3-3--5--3------------------  |
E--------------------------------------------------------------------------  |
									     |
									     | Riff 1
									     |
E-------10-----------------------------------------------------------------  |
B-11-13----11-13-10----11-10-------11--------------------------------------  |
G-------------------10-------12-10--------------------------10-12-12-12~---  |
D--------------------------------------12----12p13p12-10-12----------------  |
A--------------------------------------------------------------------------  |
E-------------------------------------------------------------------------- /



E-------11----------10---------8--------7-------6-------6-------6-------6------ \
B----11----11----11----11----9---9----9---9---8---8---8---8---6---6---6---6----  |
G-12----------12----------10-------10-------8-------8-------7-------7----------  |
D------------------------------------------------------------------------------  |
A------------------------------------------------------------------------------  |
E------------------------------------------------------------------------------  |
										 |
										 | Riff 2
										 |
E-----6-------6-------6-------6-------3---3--1--3------------------------------  |
B---8---8---8---8---6---6---6---6---4---4-4--3--4------------------------------  |
G-8-------8-------7-------7-------5--------------------------------------------  |
D------------------------------------------------------------------------------  |
A------------------------------------------------------------------------------  |
E------------------------------------------------------------------------------ /


	Riff 1
	Riff 2 (x3)
	Riff 1
	Riff 2 (x3)
Tap to rate this tab
# A B C D E F G H I J K L M N O P Q R S T U V W X Y Z