Song name
# A B C D E F G H I J K L M N O P Q R S T U V W X Y Z

Misc - Greensleeves tab

----------------------------------------------------------------------
		     Greensleeves - Unknown
----------------------------------------------------------------------

Tabbed By: MJ

If you have any questions email me : marquino6@hotmail.com with the subject GUITAR.
Standard Tuning
Timing: If you clicked into here you should already know the song, if not,
im sure once you get the song you will recognize it and be able to play it
quite easily.

Part A                              Part B
e|-------0--2--0-------------------|---------------------------------|
B|---1-3----------3--0--------0--1-|-------------0-------------------|
G|-2--------------------0--2-------|-2--2--1--2----1-----------------|
D|---------------------------------|------------------2--------------|
A|---------------------------------|---------------------------------|
E|---------------------------------|---------------------------------|

Part C                            Part D
e|-3--3--2--0--------------------|----------------------------------|
B|-------------3--0-------0--1---|-0--------------------------------|
G|-------------------0--2--------|---2--1----1--2------2v-----------|
D|-------------------------------|--------4-------------------------|
A|-------------------------------|----------------------------------|
E|-------------------------------|----------------------------------|


ORDER:
A
B
A
D
C
B
C
D


Easy, just play those parts in the order A-B, A-D, C-B, C-D, and repeat.
Great picking exercise, because you can speed up or slow down according to
how fast you can pick.
Tap to rate this tab
# A B C D E F G H I J K L M N O P Q R S T U V W X Y Z