Song name
# A B C D E F G H I J K L M N O P Q R S T U V W X Y Z

Misc - Star Spangled Banner tab

This is my version of the song and can be played anywere on the neck as long as you use
same strings I have. I think it sounds pretty good. My advice would be to take this and
it ur own by adding slides and vibratos and stuff like that. I tabbed a version without 
so that it was left up to you guys playing as to what you should do to make it your
I hope you guys like it.


E---------------------------------------------------------------------------|
B-----------------12-10------------------12-10------------------------------|
G--------------12-------12---------------------12-11-9-11-12-12-------------|
D-12-9----9-12-------------9-11-12-12-12------------------------12--9-------|
A------10-------------------------------------------------------------10----|
E---------------------------------------------------------------------------|


E---------------------------------------------------------------------------|
B-----------------12-10------------------12-10------------------------------|
G--------------12-------12---------------------12-11-9-11-12-12-------------|
D-12-9----9-12-------------9-11-12-12-12------------------------12--9-------|
A------10-------------------------------------------------------------10----|
E---------------------------------------------------------------------------|


E---------------------------------------------------------------------------|
B-12-12-12-13-15-15-13-12-10-12-13-13-13-12-10------------------------------|
G----------------------------------------------12-11-9-11-12----------------|
D------------------------------------------------------------9-11-12--------|
A---------------------------------------------------------------------------|
E---------------------------------------------------------------------------|


E---------------------------------------------------------------------------|
B-------------------------10-13-12-10-8-7-----8-10-12-13-15-8-10-12-13-10-8-|
G-------12-12-12-11-9-9-9-----------------7-7-------------------------------|
D-12-12---------------------------------------------------------------------|
A---------------------------------------------------------------------------|
E---------------------------------------------------------------------------|
Tap to rate this tab
# A B C D E F G H I J K L M N O P Q R S T U V W X Y Z