Song name
# A B C D E F G H I J K L M N O P Q R S T U V W X Y Z

Misc - America The Beautiful tab

"America the Beautiful"
Someone else made this tab but some of it was incorrect. Here's the new version.
Corrected by sportsguy
e|---------------------------------------------------------------------------|
B|----------------------------------------12---------------------------------|
G|-12-12--9-9--12-12--7-7--10-11--12-14------12------------------------------|
D|---------------------------------------------------------------------------|
A|---------------------------------------------------------------------------|
E|---------------------------------------------------------------------------|

e|--------------------------10-9-10--12----10--------------------------------|
B|--------------------------------------10-----------------------------------|
G|-12-12--9-9--12-12--7-7----------------------------------------------------|
D|---------------------------------------------------------------------------|
A|---------------------------------------------------------------------------|
E|---------------------------------------------------------------------------|

e|---12-12-10----------------------------------------------------------------|
B|-8----------13-13-12-12--13-15-12-10-8-13----------------------------------|
G|---------------------------------------------------------------------------|
D|---------------------------------------------------------------------------|
A|---------------------------------------------------------------------------|
E|---------------------------------------------------------------------------|

e|---------------------------------------------------------------------------|
B|-13-13--10-10--13-13--8-8---8-10-13----15--13------------------------------|
G|------------------------------------12-------------------------------------|
D|---------------------------------------------------------------------------|
A|---------------------------------------------------------------------------|
E|---------------------------------------------------------------------------|
Tap to rate this tab
# A B C D E F G H I J K L M N O P Q R S T U V W X Y Z