Song name
# A B C D E F G H I J K L M N O P Q R S T U V W X Y Z

Misc - Dont Know Why tab

e----------------------------------
b----------------------------------
g---------------------------------- 4x (let ring on 4th)
d-----9----------------------9-0---
a---7---10-9-----------------9-7---
e------------10-10--10-10-10-------

e----------------------------------------------------------------------------
b----------------------------------------------------------------------------
g----------------------------------------------------------------------------
d----------------------------------------------------------------------------
a---9-9--9-9-9-9-7-7--7-7-7-7-5-5--5-5-5-5-9---------------------------------
e---9-9--9-9-9-9-7-7--7-7-7-7-5-5--5-5-5-5-9---------------------------------
Tap to rate this tab
 
# A B C D E F G H I J K L M N O P Q R S T U V W X Y Z