Song name
# A B C D E F G H I J K L M N O P Q R S T U V W X Y Z

Misc - Its A Small World tab

-------------------------------------------------------------------------------
			     It's A Small World - Misc.
-------------------------------------------------------------------------------

Tabbed by: C_Mo
Email:chris@cecgroup.com

Tuning: standard


D|-------2---0----------------0----------------------0-2-0-----0-2-3-|
A|---------3---3-3-2-2------0---2-3-2-0------------3-------3-0-------|
E|-0-1-3----------------1-3-------------3-3--0-1-3-------------------|

D|-2-0-----------|
A|-------8-7-5-3-|
E|-----3---------|

D|-----------------------------------------------------2-3-------------------|
A|-3-3-7-3-5-5-5--5-8-5-7-7-7--7-7-10-7-8-8-8--7-5-5-3-----------------------|
E|---------------------------------------------------------------------------|

It's a world of laughter, a world of tears
It's a world of hopes and a world of fears.
There's so much rhat we share that it's time we're aware
It's a small world after all.

It's a small world after all.
It's a small world after all.
It's a small world after all.
It's a small, small, small world.

There is just one moon and one golden sun, and a smile means friendship to every one.
Through the mountains divide and the oceans are wide, it's a small world after all.

It's a small world after all.
It's a small world after all.
It's a small world after all.
It's a small, small, small world.
Tap to rate this tab
# A B C D E F G H I J K L M N O P Q R S T U V W X Y Z