Song name
# A B C D E F G H I J K L M N O P Q R S T U V W X Y Z

Misc - Advance Australia Fair tab

|0-5-0---0----5-5-5----9-7-5-4----5-7-----------------------------|
|------2----------------------------------------------------------|
|-----------------------------------------------------------------|
|-----------------------------------------------------------------|
|-----------------------------------------------------------------|
|-----------------------------------------------------------------|

|0-5-0---------0---0-0--9--7--5--4---2---0------------------------|
|-------2---------------------------------------------------------|
|---------3-------------------------------------------------------|
|-----------------------------------------------------------------|
|-----------------------------------------------------------------|
|-----------------------------------------------------------------|

|0--2--4--5--2-0--------0---2---4--10-9---7-----------------------|
|-----------------2-2---------------------------------------------|
|-----------------------------------------------------------------|
|-----------------------------------------------------------------|
|-----------------------------------------------------------------|
|-----------------------------------------------------------------|

|0-2--4---5---2--0--5--5--7--9----5--7---4---5--------------------|
|-----------------------------------------------------------------|
|-----------------------------------------------------------------|
|-----------------------------------------------------------------|
|-----------------------------------------------------------------|
|-----------------------------------------------------------------|

|9--10-9--7--5----4-6--0--5---9---5--7-4--5-----------------------|
|-----------------------------------------------------------------|
|-----------------------------------------------------------------|
|-----------------------------------------------------------------|
|-----------------------------------------------------------------|
|-----------------------------------------------------------------|
Tap to rate this tab
# A B C D E F G H I J K L M N O P Q R S T U V W X Y Z