Song name
# A B C D E F G H I J K L M N O P Q R S T U V W X Y Z

Misc - Swedish National Anthem tab

Song: Swedens National Anthem
Artist: ?
Written by: ?
Lyrics by: ?
RAting: 5 of 5
Album: ?
tabed: Pär "Pogo,Mw Gacy" Stenberg
fanta98@hotmail.com


Is there anything better then the anthem of sweden?
Easy song but so beautiful


|-2-2-------0-2-2-0--------0-----0---2----------------0---------|
|-----3-3-3---------3-2--3---2-3---2---3-0--------3-3----2-2-3-0|
|------------------------------------------2---2----------------|
|---------------------------------------------------------------|
|---------------------------------------------------------------|
|---------------------------------------------------------------|


|-----------------------0-2----3-2-0---------------0-2----3-2-0---|
|----0-2---------3-2-3------3--------3------3-2-3------3--------3-|
|-2-------2---2--------------------------2------------------------|
|-----------------------------------------------------------------|
|-----------------------------------------------------------------|
|-----------------------------------------------------------------|

Siste Svensken tar med sig flagan.
Tap to rate this tab
# A B C D E F G H I J K L M N O P Q R S T U V W X Y Z