Song name
# A B C D E F G H I J K L M N O P Q R S T U V W X Y Z

Misc - Country tab

-----------------------------------------------------------------------------
			     COUNTRY RIFF - Misc
-----------------------------------------------------------------------------
Tabbed by:Brandon
Email:ShortBoy72833@aol.com

Tuning:Regular Tuning

e|-----------------------------7--------------------------------------------|
B|-----------------------7-10-----10-7--------------------------------------|
G|------------------7-9-----------------9-7^--------------------------------|
D|-------------7-9----------------------------9-7---------------------------|
A|--------7-9--------------------------------------9-7----------------------|
E|-7-10-------------------------------------------------10-7----------------|




| /  slide up
| \  slide down
| h  hammer-on
| p  pull-off
| ~  vibrato
| +  harmonic
| x  Mute note
=============================================================================
Tap to rate this tab
 
# A B C D E F G H I J K L M N O P Q R S T U V W X Y Z