Song name
# A B C D E F G H I J K L M N O P Q R S T U V W X Y Z

Misc - Lullaby tab

Written by myself, VERY simple!

To be played slowy and softly

e|-----------0--|--0--0-----------|
B|--------1-----|--------0--------|
G|-----2-----2--|--2--1-----1-----| x2
D|--2-----2-----|--------2-----2--|
A|-----0--------|-----------2-----|
E|--0-----------|---------------0-|
     Am                              E

e|-----------3--|--3--1-----------|
B|--------3-----|--------3--------|
G|-----0-----0--|--0--2-----2-----|
D|--0-----0-----|--------0-----0--|
A|-----2--------|-----------0-----|
E|--3-----------|--------------1--|
      G                                Dm

e|-----------0--|--0--0-----0-----|
B|--------0-----|--------1--------|
G|-----1-----1--|--1--2-----2--2--|
D|--2-----2-----|--------2--------|
A|-----2--------|---------------0-|
E|--0-----------|-----------------|
       E                               Am
Tap to rate this tab
 
# A B C D E F G H I J K L M N O P Q R S T U V W X Y Z