Guitaretab - guitar tabs
Song name
# A B C D E F G H I J K L M N O P Q R S T U V W X Y Z

Misc - Ode To Joy tab

----------------------------------------------------------------------------
			     Ode to Joy- Anonymous
----------------------------------------------------------------------------
Tabbed by: Anonymous
Email:  Anonymous

Tuning: Standard

e|--0-0-1-3-3-1-0---------0-0-----0-0-1-3-3-1-0---------0-------------------|
B|----------------3-1-1-3-----3-3---------------3-1-1-3---3-1-1-------------|
G|--------------------------------------------------------------------------|
D|--------------------------------------------------------------------------|
A|--------------------------------------------------------------------------|
E|--------------------------------------------------------------------------|
[ Tab from: http://www.guitaretab.com/m/misc/162126.html ]
e|------0-----0-1-0-----0-1-0-----------------------------------------------|
B|--3-3---1-3-------1-3-------3-1-3-----------------------------------------|
G|----------------------------------0---------------------------------------|
D|--------------------------------------------------------------------------|
A|--------------------------------------------------------------------------|
E|--------------------------------------------------------------------------|

e|--0-0-1-3-3-1-0---------0-0-----0-0-1-3-3-1-0---------0-------------------|
B|----------------3-1-1-3-----3-3---------------3-1-1-3---3-1-1-------------|
G|--------------------------------------------------------------------------|
D|--------------------------------------------------------------------------|
A|--------------------------------------------------------------------------|
E|--------------------------------------------------------------------------|
Related for Ode To Joy tab
Advertisement will be closed in 10 seconds