Guitaretab - guitar tabs
Song name
# A B C D E F G H I J K L M N O P Q R S T U V W X Y Z

Misc - Tarantella tab

hey guys, i was just goofing around and came up with an easy way to play the
 tarantella.. its pretty catchy :)


e---7--7-----------7--7---------------------------------------------|
B----------7--7----------7--------7--7----8--8--8---10---8---7------|
G-------------------------------------------------------------------|
D-------------------------------------------------------------------|
A-------------------------------------------------------------------|
E-------------------------------------------------------------------|

[ Tab from: http://www.guitaretab.com/m/misc/162534.html ]
e-------------------------------------------------------------------|
B---7--7---5--5---7---5---3--3---5--3---2--2---3---2---0------------|
G-------------------------------------------------------------------|
D-------------------------------------------------------------------|
A-------------------------------------------------------------------|
E-------------------------------------------------------------------|


play it a twice then play this twice...


e----------------0----------------0---------------------------------|
B--0--2---3---2-------2---3---2-------2---3---2---0---2--3---0------|
G-------------------------------------------------------------------|
D-------------------------------------------------------------------|
A-------------------------------------------------------------------|
E-------------------------------------------------------------------|


then back to the first part..

hope u enjoy playing this as much as i do :) buona fortuna!!!
Related for Tarantella tab
Advertisement will be closed in 10 seconds