Guitaretab - guitar tabs
Song name
# A B C D E F G H I J K L M N O P Q R S T U V W X Y Z

Misc - Bluezy Tune tab

I'm not sure where this tune came from, my brother taught it to me. but I thought
it sounded pretty cool.     This is played in a solid flow.

e|x----------------------------------------------|
B|x----------------------------------------------|
G|x----------------------------------------------|
D|x----------------------------------------------|
A|--2-2--2-4---2-2--2-4---2-2--2-4---2-2--2-4----|
E|--0-0--0-0---0-0--0-0---0-0--0-0---0-0--0-0----|

e|x----------------------------------------------|
B|x----------------------------------------------|
G|x----------------------------------------------|
D|--2-2--2-4---2-2--2-4---2-2--2-4---2-2--2-4----|
A|--0-0--0-0---0-0--0-0---0-0--0-0---0-0--0-0----|
E|x----------------------------------------------|
[ Tab from: http://www.guitaretab.com/m/misc/181843.html ]
e|x----------------------------------------------|
B|x----------------------------------------------|
G|x----------------------------------------------|
D|x----------------------------------------------|
A|--2-2--2-4---2-2--2-4---2-2--2-4---2-2--2-4----|
E|--0-0--0-0---0-0--0-0---0-0--0-0---0-0--0-0----|

e|x----------------------------------------------|
B|x----------------------------------------------|
G|x----------------------------------------------|
D|--4-4--4-4---4-4--4-4---2-2--2-2---2-2--2-2----|
A|--2-2--2-2---2-2--2-2---0-0--0-0---0-0--0-0----|
E|x----------------------------------------------|

e|x----------------------------------------------|
B|x----------------------------------------------|
G|x----------------------------------------------|
D|x----------------------------------------------|
A|--2-2--2-4---2-2--2-4---0-0-0--1--2------------|
E|--0-0--0-0---0-0--0-0---x----------------------|

Repeat until all your sorrows have drifted away. Or just whenever you feel like
stoping.     By: Easy Paqueezy
Related for Bluezy Tune tab
Advertisement will be closed in 10 seconds