Song name
# A B C D E F G H I J K L M N O P Q R S T U V W X Y Z

Misc - Famous Need To Know Guitar Riffs tab

Okay, I noticed many people wanted a list of famous guitar riffs and 
whatnot, so I put together seven great songs to practice, play, whatever.
- Peace, (Christian Hall) frogz694@hotmail.com

Song Name (part) by Band
E|---------------------|
B|---------------------|
G|---------------------|
D|---------------------|
A|---------------------|
E|---------------------|
Tabber
Link to full song


(/) Slide Up  (\) Slide Down  (h) Hammer On  (p) Pull Off  (b) Bend Half Step  
(B) Bend Whole Step  (r) Release (v) Vibrato



Iron Man (riff) by Black Sabbath
|------------------------------------------|
|------------------------------------------|
|------------------------------------------|
|------------------------------------------|
|----5--5h7--7--10\9-10\9-10\9--5--5h7--7--|
|-7----------------------------------------|
Unidentified 
http://www.ultimate-guitar.com/tabs/b/black_sabbath/iron_man_tab.htm



Sweet Child O' Mine (intro) by Guns N Roses
|-------------15----14----|-------------15----14----|
|----15-------------------|----15-------------------|
|-------14-12----14----14-|-------14-12----14----14-|
|-12----------------------|-12----------------------|
|-------------------------|-------------------------|
|-------------------------|-------------------------|

|-------------15----14----|-------------15----14----|
|----15-------------------|----15-------------------|
|-------14-12----14----14-|-------14-12----14----14-|
|-14----------------------|-14----------------------|
|-------------------------|-------------------------|
|-------------------------|-------------------------|

|-------------15----14----|-------------15----14----|
|----15-------------------|----15-------------------|
|-12----14-12----14----14-|-12----14-12----14----14-|
|-------------------------|-------------------------|
|-------------------------|-------------------------|
|-------------------------|-------------------------|
Jake Brown
http://www.ultimate-guitar.com/tabs/g/guns_n_roses/sweet_child_o_mine_tab.htm



Smoke On the Water (riff) by Deep Purple
|-------------------------------------------------|
|-------------------------------------------------|
|--0---3---5----0---3---6-5----0---3---5----3--0--|
|--0---3---5----0---3---6-5----0---3---5----3--0--|
|-------------------------------------------------|
|-------------------------------------------------|
Unidentified
http://www.ultimate-guitar.com/tabs/d/deep_purple/smoke_on_the_water_tab.htm



Sunshine Of Your Love (riff) by Cream
|---------------------------------------------|
|---------------------------------------------|
|---------------------------------------------|
|---12--12---10---12--------------------------|
|---------------------12--11--10------b8------|
|---------------------------------10------10--|
Collin Middleton
http://www.ultimate-guitar.com/tabs/c/cream/sunshine_of_your_love_tab.htm



Sweet Home Alabama (intro) by Lynard Skynard
|-------------------------------|-------------------------------|
|--------3---------------3------|-------------------------------|
|----------2---------------0----|--------0--0----------------2/0|
|--0--0------0---------------0--|-------------------0-2/0-------|
|--------------3(0)3------------|--------------0/2--------2-----|
|-------------------------------|-3(0)3-------------------------|
Shawn M Gabel
http://www.ultimate-guitar.com/tabs/l/lynyrd_skynyrd/sweet_home_alabama_tab.htm



Johnny B. Goode (intro) by Chuck Berry
|--------------|6--6--6--6--6--6--6--6--|6-----------------------| 
|--------6--8--|6--6--6--6--6--6--6--6--|6--9--8--6--------------|
|--6--7--------|------------------------|------------6--7--------|
|--------------|------------------------|------------------8--8--| 
|--------------|------------------------|------------------------| 
|--------------|------------------------|------------------------|
Scott A. Yanoff
http://www.ultimate-guitar.com/tabs/c/chuck_berry/johnny_b_goode_tab.htm



Wish You Were Here (solo) by Pink Floyd
|-------------------------------------|
|-------3v--5p0h3---------------------|
|--2/4-------------4\2p0--------------|
|-------------------------0-----0--0--|
|----------------------------2--------|
|-------------------------------------|

|--3/5--5\3----------------------------|
|--3/5--5\3---3/5--5\3----3---3--------|
|-------------2/4--4\2p0--2b--2B(2)p0--|
|--------------------------------------|
|--------------------------------------|
|--------------------------------------|
Christian Hall

Tap to rate this tab
# A B C D E F G H I J K L M N O P Q R S T U V W X Y Z