Song name
# A B C D E F G H I J K L M N O P Q R S T U V W X Y Z

Misc - An Irish Folk Song tab

tell me what you think constructive criticism only plz dont be a dick 




|--7--4--0-----------------|--7--4--0-------------------|
|----------7--4--0--4--4-4--|----------7--4--0--2-2-2---|
|--------------------------|----------------------------|----|
|--------------------------|----------------------------|    |
|--------------------------|----------------------------|    |
|--------------------------|----------------------------|    |
							     |-
							     |  repeat x2
|--7--4--0-----------------|--7--4--0-------------------|    |-
|----------7--4--0--4--4-4-|----------7--4--0--2-4-2-0--|    |
|--------------------------|----------------------------|    |
|--------------------------|----------------------------|----|
|--------------------------|----------------------------|
|--------------------------|----------------------------|




|--7--4--0--7--4--0--7--4--0------|----------------------------|
|---------------------------------|--7--4--0--7--4--0--7--4--0-|
|---------------------------------|----------------------------| 
|---------------------------------|----------------------------|
|---------------------------------|----------------------------|
|---------------------------------|----------------------------|


|--7--4--0--7--4--0--7--4--0------|--------------------------------|
|---------------------------------|--7--4--0--7--4--0--2--4--2--0--|
|---------------------------------|--------------------------------|
|---------------------------------|--------------------------------|
|---------------------------------|--------------------------------|
|---------------------------------|--------------------------------|



|--7--4--0-----------------|--7--4--0-------------------|
|----------7--4--0--4--4-4-|----------7--4--0--2-2-2----|
|--------------------------|----------------------------|----|
|--------------------------|----------------------------|    |
|--------------------------|----------------------------|    |
|--------------------------|----------------------------|    |
							     |-
							     |  repeat x2
|--7--4--0-----------------|--7--4--0-------------------|    |-
|----------7--4--0--4-4-4--|----------7--4--0--2-4-2-0--|    |
|--------------------------|----------------------------|    |
|--------------------------|----------------------------|----|
|--------------------------|----------------------------|
|--------------------------|----------------------------|




|--7--4--0--7--4--0--7--4--0------|----------------------------|
|---------------------------------|--7--4--0--7--4--0--7--4--0-|
|---------------------------------|----------------------------| 
|---------------------------------|----------------------------|
|---------------------------------|----------------------------|
|---------------------------------|----------------------------|


|--7--4--0--7--4--0--7--4--0------|--------------------------------|
|---------------------------------|--7--4--0--7--4--0--2--4--2--0--|
|---------------------------------|--------------------------------|
|---------------------------------|--------------------------------|
|---------------------------------|--------------------------------|
|---------------------------------|--------------------------------|

Tap to rate this tab
 
# A B C D E F G H I J K L M N O P Q R S T U V W X Y Z