Song name
# A B C D E F G H I J K L M N O P Q R S T U V W X Y Z

Misc - Playstation - Moonlight Theme tab

Okay, so this is a basic tab for this song.
I know it's not quite perfect, but this is the best I could do in a short amount of time.
If you have an questions feel free to send me a message!

E---3--2-----2--3------|------------------|---3--2-----2--5------|--7--8p7--3-------|
B---3--3--3--3--3--3---|---3--1p0---------|---3--3--3--3--3--3---|--10--------------|
G---------0--------0---|---0------0-2-4-2-|---------0--------0---|------------------| x3
D----------------------|---0--------------|----------------------|------------------|
A----------------------|---3--------------|----------------------|------------------|
E----------------------|------------------|----------------------|------------------|

When you play though on the fourth time there is a little more added to the end.

E---3--2-----2--3------|------------------|---3--2-----2--5------|--7--8p7--3--3h5p3|
B---3--3--3--3--3--3---|---3--1p0---------|---3--3--3--3--3--3---|--10--------------|
G---------0--------0---|---0------0-2-4-2-|---------0--------0---|------------------| x1
D----------------------|---0--------------|----------------------|------------------|
A----------------------|---3--------------|----------------------|------------------|
E----------------------|------------------|----------------------|------------------|

The part with the second guitar isn't to clear, yet I'm pretty sure it's along these 
I don't know the picking pattern though!


E--------3---------3-----|
B--------3---------3-----|
G----0---0------0--0-----|
D---0----0-----0---0-----|
A------------3-----------|
E--3---------------------|

If you mess around with picking patterns within those notes I think you'll find 
similar enough you won't notice.
I don't have enough time on my hands to tab out every little bit, yet if you want to, 
edit it =D.

Let me know if you have any issues and I'll try to help you out.

Thank you,
-Eric Tran
Tap to rate this tab
 
# A B C D E F G H I J K L M N O P Q R S T U V W X Y Z