Guitaretab - guitar tabs
Song name
# A B C D E F G H I J K L M N O P Q R S T U V W X Y Z

Misc - Guitar Riffs tab

                       _____              ______
                      |  ___|            |  ____|
                      | |__              | |____
                      |  __| A R T I C U |____  |
                      | |                     | |
                      | |                 ____| |
                      |_|  GUITAR RIFFS  |______|

Here are some guitar riffs written by Ariel and Apathy, the singer
and guitar player in Farticus. Look out for our first album, "Post
Burrito Depression".

Riff 1
E-----------------------------------------------------------------|
B-----------------------------------------------------------------|
G-----------------------------------------------------------------|
D--555555-------66666-99999---------------------------------------|
A--333333-66666-44444-77777---------------------------------------|
E---------44444---------------------------------------------------|
[ Tab from: http://www.guitaretab.com/m/misc/25140.html ]
Riff 2
E-----------------------------------------------------------------|
B-----------------------------------------------------------------|
G-----------------------------------------------------------------|
D--5/9--------5/9--------5/9--------5/9-12121212------------------|
A--3/7-5555---3/7-5555---3/7-5555---3/7-11111111------------------|
E------3333-------3333-------3333---------------------------------|

Riff 3
E---------------------------|--------------------------------------|
B---------------------------|--------------------------------------|
G---------------------------|--------------------------------------|
D--------77777-------77777--|-------------77777--------------------|
A--55555-55555-77777-55555--|-22222-55555-55555--------------------|
E--33333-------55555--------|-00000-33333--------------------------|

Riff 4
E---------------------|-------------------------------------------|
B---------------------|-------------------------------------------|
G---------------------|-------------------------------------------|
D--7/9-9999-555-------|-7/9-9999-555------------------------------|
A--5/7-7777-333-5555--|-5/7-7777-333-5555--3xxxxxxxxxxx-55-7------|
E---------------3333--|--------------3333--1xxxxxxxxxxx-33-5------|
Related for Guitar Riffs tab
Advertisement will be closed in 10 seconds