Song name
# A B C D E F G H I J K L M N O P Q R S T U V W X Y Z

Misc - First Song tab

#-----------------------------------------------------------------------------#
#-- File created with Instab - http://www.pconline.com/~smcarey/instab.html --#
#-----------------------------------------------------------------------------#

Author/Artist: Jason
Title: First Song
------------------------------------------------------------------------------
------------------------------------------------------------------------------
-9----7----5------------------------------------------------------------------
-9-9--7--7-5--5---------------------------------------------------------------
-7-9--5--7-3--5---------------------------------------------------------------
---7-----5----3---------------------------------------------------------------
 chorus                                 strum each chord twice for intro      

------------------------------------------------------------------------------
------------------------------------------------------------------------------
-4----------------------------------------------------------------------------
-4-3--5-----------------------------------------------------------------------
-2-3--5-----------------------------------------------------------------------
---1--3-----------------------------------------------------------------------
                                                                              

Tap to rate this tab
# A B C D E F G H I J K L M N O P Q R S T U V W X Y Z