Song name
# A B C D E F G H I J K L M N O P Q R S T U V W X Y Z

Misc - The Good The Bad And The Ugly tab

v - vibrato
~ - hold note
^ - bend up

INTRO

e|----10----10-------------------------------------|
B|-10----10----10v~------6~------8~----------------|
G|---------------------------------------7~--------|
D|-------------------------------------------------|
A|-------------------------------------------------|
E|-------------------------------------------------|

MAIN THEME - Play this twice before moving onto the next part

e|----10----10-------------------------------------|
B|-10----10----10v~------6--8----------------------|
G|-----------------------------7~------------------|
D|-------------------------------------------------|
A|-------------------------------------------------|
E|-------------------------------------------------|

e|----10----10-----------------8~------------------|
B|-10----10----10v~------6--8----------------------|
G|-------------------------------------------------|
D|-------------------------------------------------|
A|-------------------------------------------------|
E|-------------------------------------------------|

e|----10----10-------------------------------------|
B|-10----10----10v~------6--5--3-------------------|
G|--------------------------------5~---------------|
D|-------------------------------------------------|
A|-------------------------------------------------|
E|-------------------------------------------------|

e|----10----10-------------------------------------|
B|-10----10----10v~------8^------------------------|
G|---------------------------5~--------------------|
D|-------------------------------------------------|
A|-------------------------------------------------|
E|-------------------------------------------------|

ELECTRIC GUITAR

e|--------------------|
B|--------------------|
G|-------2-----5------|
D|-0--3-----3---------| X 2
A|--------------------|
E|--------------------|

On the third time, I'm pretty sure this is played:

e|----------------------------3~------5~--|
B|-------------------5-----5--------------|
G|-------2-----5--2-----5-----------------|
D|-0--3-----3-----------------------------|  
A|----------------------------------------|
E|----------------------------------------|

Well, that's all! Enjoy my tab and rate! =)

Tap to rate this tab
# A B C D E F G H I J K L M N O P Q R S T U V W X Y Z