Song name
# A B C D E F G H I J K L M N O P Q R S T U V W X Y Z

Misc - Happy Birthday Punk Style tab

Submitted by: Aaron Burch

This is about my third tab and the first one that isn't a Blink-182 song. 
I pretty much took the other birthday song and retabbed it in power chords.

                  use distortion
E-----------------------------------------------------------
B-----------------------------------------------------------
G-----------5-4--------------7-5----------------------------
D-5-5--7-5--5-4----5-5--7-5--7-5----------------------------
A-5-5--7-5--3-2----5-5--7-5--5-3----------------------------
E-3-3--5-3---------3-3--5-3---------------------------------



E-----------------------------------------------------------
B-----------------------------------------------------------
G------12-9-------------10-10--9-5--7-5---------------------
D-5-5--12-9--10--9-7----10-10--9-5--7-5---------------------
A-5-5--10-7--10--9-7----8--8---7-3--5-3---------------------
E-3-3--------8---7-5----------------------------------------


That's abut it. If you don't know the words or have difficulty playing this you s
hould hang up your guitar and try playing the kazoo.
Tap to rate this tab
# A B C D E F G H I J K L M N O P Q R S T U V W X Y Z