Song name
# A B C D E F G H I J K L M N O P Q R S T U V W X Y Z

Misc - Somewhere Over The Rainbow tab

somewhere over the rainbow intro!!!
guitar


-----------------------------------------------------
---3--------------------3----------3-------3---------
-------------------------------------3--2----0--2--3-
------5--4--0--2--4--5-----2--0----------------------
-----------------------------------------------------
-----------------------------------------------------



-----------------------------------------------------
-----2--3---------3----------------------------------
--0--------0--2--------------------------------------
-----------------------------------------------------
-----------------------------------------------------
-----------------------------------------------------
Tap to rate this tab
 
# A B C D E F G H I J K L M N O P Q R S T U V W X Y Z