Song name
# A B C D E F G H I J K L M N O P Q R S T U V W X Y Z

Misc - The Birdie Song tab

ok, i got a little bored just now and figured this out.
hope you like it...

G:-------------------------------|
D:-----0-0-------------0-0-------|
A:-3-3-----0-0-3---3-3-----0-0-3-|
E:-------------------------------|

G:-------------------------------|
D:-----0---3---2--2-2--0-0-------|
A:-3-----------------------3-3-1-|
E:-------------------------------|

G:---------------------------------|
D:---------------------------------|
A:-1-1--3-3-----1---1-1--3-3-----1-|
E:----------3-3--------------3-3---|

G:--------------------------------|
D:---------2---3---3-3------------|
A:-1---3---------------3-3--0-0---|
E:------------------------------1-|

if anyone knows the slow waltzy part, they should tab it
that way we can show all our friends the WHOLE birdie song...yay!
Tap to rate this tab
 
# A B C D E F G H I J K L M N O P Q R S T U V W X Y Z