Song name
# A B C D E F G H I J K L M N O P Q R S T U V W X Y Z

Misc - Silver Cappucino tab

e---------0------------------------------------------------
b-------------------8--------------------------------------
g-----7-9---9~~-------10-9h10-9-10-12-14-14~~-12-----------
d---9--------------------------------------------15-14-15--
a-7--------------------------------------------------------
E----------------------------------------------------------

e----------------------------------------------------------
b----------------------------------------------------------
g-12-14-12-10-9/7-7/9~~------------------------------------
d----------------------------------------------------------
a----------------------------------------------------------
E----------------------------------------------------------
Tap to rate this tab
# A B C D E F G H I J K L M N O P Q R S T U V W X Y Z