Song name
# A B C D E F G H I J K L M N O P Q R S T U V W X Y Z

Misc - Alton Towers Theme Tune tab

Help us improve GuitareTab! Take a short survey!
Alton Towers Tune
by kieran hughes

E|---------------------------
B|---------------------------
G|---------------------------
D|---------------------------
A|-------0-2---2-1---1-0-----
E|-0-2-3-----3-----2-----1-0-

E|---------------------------
B|---------------------------
G|---------------------------
D|---------------1-0-------0-
A|-------0-2---2-----2---2---
E|-0-2-3-----3---------3-----

e-mail comments to piesarenice@hotmail.com
Related for Alton Towers Theme Tune tab