Song name
# A B C D E F G H I J K L M N O P Q R S T U V W X Y Z

Misc - Like I Care Nokia Tone tab

Title: Like I Care
Song from Nokia default tones
Electric Guitar


INTRO
E |----------------------------|----------------------------|
B |--------------5-------------|----------------------------|
G |-----4--7--4-----7--5--4----|-----4--7--4h-5--4----------|
D |--5-------------------------|--5-----------------7--5-5--|
A |----------------------------|----------------------------|
E |----------------------------|----------------------------|


SOLO
E |--8---8--10-12-8--/14-12-10---8--10--8---7~-----5---7---5--|
B |----8------------------------------------------------------|
G |-----------------------------------------------------------|
D |-----------------------------------------------------------|
A |-----------------------------------------------------------|
E |-----------------------------------------------------------|

-------------------|----------------|-------||
--8~----13-13-12---|--13-15-17-19---|--17---||
-------------------|----------------|-------||
-------------------|----------------|-------||
-------------------|----------------|-------||
-------------------|----------------|-------||
Tap to rate this tab
# A B C D E F G H I J K L M N O P Q R S T U V W X Y Z