Song name
# A B C D E F G H I J K L M N O P Q R S T U V W X Y Z

Misc - My First Hardcore Song tab

----------------------------------------------------------------------------
			     My First Hardcore Song - Juliet
----------------------------------------------------------------------------

Tabbed by: x3ricxblink182
Email:x3ricxblink182@aim.com

Tuning: Drop C# (Drop Db)

D#|--------------------|
A#|--------------------|
F#|--------------------|
C#|--0~-----3~---4~----|
G#|--0~-----3~---4~----|
C#|--0~-----3~---4~----| x2


“Get your two-step on”

D#|------------------------------|
A#|------------------------------|
F#|------------------------------|
C#|--0--------3--------4---------|
G#|--0-(16x)--3-(16x)--4-(16x)---|
C#|--0--------3--------4---------| x2


“I love Robin”

D#|----------------------------|
A#|---------6--6--6--6--6-6--6-|
F#|-------9--9--9--9--9--9--9--|
C#|--000-----------------------|
G#|--000-----------------------|
C#|--000-----------------------|

“Let’s open up this pit”

D#|------------------------------------------|
A#|------------------------------------------|
F#|------------------------------------------|
C#|---------000000-00000-000000--00000-------|
G#|---------000000-00000-000000--00000-2-2-2-|
C#|--12////-000000-00000-000000--00000-3-3-3-|


“Oooooooooohhhhh”

D#|-------------------------------------|
A#|-------------------------------------|
F#|-------------------------------------|
C#|--000000-00000-000000--00000-3-4-0---|
G#|--000000-00000-000000--00000—3-4-0---|
C#|--000000-00000-000000--00000-3-4-0---|


Oh.
Tap to rate this tab
# A B C D E F G H I J K L M N O P Q R S T U V W X Y Z