Song name
# A B C D E F G H I J K L M N O P Q R S T U V W X Y Z

Misc - Popeye tab

                    This is the Popeye Theme


e-------------------------|-----------------------------------|--
b-------------------------|-----------------------------------|--
g-7-6-7---------------7-7-|-9-8-9-----9-7-6-------------------|--
a-------------7-5-4-5-----|------------------9-7-7------------|--
d-------5-5---------------|-------7-7-------------------------|--
E-------------------------|-----------------------------------|--


e-------------------------------|-----------------------------|--
b-------------------------------|-----------------------------|--
g-4-6-7-6-4---4-----------------|-----------------------------|--
a-----------7---7-5-4-5-4-------|------------4-5-7-4----------|--
d-------------------------7-5-4-|------4-5-7---------5-5------|--
E-------------------------------|-7-5-7-----------------------|--

            Tabbed by: Kurt Angel -AKA- Biscuit_Bandit

E-mail me at biscuit_bandit@hotmail.com
Tap to rate this tab
# A B C D E F G H I J K L M N O P Q R S T U V W X Y Z