Song name
# A B C D E F G H I J K L M N O P Q R S T U V W X Y Z

Misc - You Are My Sun Shine tab

Tabbed by Matt Furlong *Lord Of The Strings*
this is a 'appy song!!!  SO BE 'APPY DUDE!!!!

---------------------------------------------------------
1-3-3--5-5~----5-3-5------------------10~--10-8-6-5~-----
---------------------5-5~----5-7-9-10--------------------
---------------------------------------------------------
---------------------------------------------------------
---------------------------------------------------------

---------------------------------------------------------
----------10~--10-8-6-5-------1-3-3/5-5-3-3-5------------
-5-7-9-10---------------5~--5-----------------5~~~~------
---------------------------------------------------------
---------------------------------------------------------
---------------------------------------------------------
Tap to rate this tab
 
# A B C D E F G H I J K L M N O P Q R S T U V W X Y Z