Song name
# A B C D E F G H I J K L M N O P Q R S T U V W X Y Z

Misc - Two String Blues tab

  Tabbed by: SUPERMAN #10
 Email:justino_88@hotmail.com
 

    repeat 2 times                    
e|-----------------------------------------------------------------------|
B|-----------------------------------------------------------------------|
G|-----------------------------------------------------------------------| 
D|-----------------------------------------------------------------------| 
A|---2-----2---- 4-----4-----5-----5-----4h5p4-----4---------------------| 
E|---0-----0-----0-----0-----0-----0-----0----------0--------------------|
           repeat 2 times
e|----------------------------------------------------------------------|
B|----------------------------------------------------------------------|
G|----------------------------------------------------------------------|
D|---2-----2-----4-----4-----5-----5-----4h5p4-----4--------------------|
A|---0-----0-----0-----0-----0-----0-----0----------0-------------------| 
E|----------------------------------------------------------------------|
     repeat 2 times
e|----------------------------------------------------------------------|
B|----------------------------------------------------------------------|
G|----------------------------------------------------------------------|
D-----------------------------------------------------------------------|
A|---2-----2---- 4-----4-----5-----5-----4h5p4-----4--------------------| 
E|---0-----0-----0-----0-----0-----0-----0----------0-------------------|

Repeat this as many times as u want and then end with this:
Tap to rate this tab
# A B C D E F G H I J K L M N O P Q R S T U V W X Y Z