Song name
# A B C D E F G H I J K L M N O P Q R S T U V W X Y Z

Misc - Twinkle Twinkle Little Star Punk tab

Twinkle Twinkle Little Star Punk 
Tabbed out by sportsguy (Chris Ballinger).

e--------------------------------------
b--------------------------------------
g--------------------------------------
d-------22-----99-----11-11----9-------
a-------22-----99-----11-11----9-------
e-------00-----77-----9---9----7-------

e--------------------------------------
b--------------------------------------
g--------------------------------------
d-------77-----66-----44----2----------
a-------77-----66-----44----2----------
e-------55-----44-----22----0----------


e-------------------------------------
b-------------------------------------
g-------------------------------------
d-------99-----77-----66-----4--------
a-------99-----77-----66-----4--------
e-------77-----55-----44-----2--------


e-------------------------------------
b-------------------------------------
g-------------------------------------
d-------99-----77-----66-----4--------
a-------99-----77-----66-----4--------
e-------77-----55-----44-----2--------


e--------------------------------------
b--------------------------------------
g--------------------------------------
d-------22-----99-----11-11----9-------
a-------22-----99-----11-11----9-------
e-------00-----77-----9---9----7-------

e--------------------------------------
b--------------------------------------
g--------------------------------------
d-------77-----66-----44----2----------
a-------77-----66-----44----2----------
e-------55-----44-----22----0----------
Tap to rate this tab
# A B C D E F G H I J K L M N O P Q R S T U V W X Y Z