Song name
# A B C D E F G H I J K L M N O P Q R S T U V W X Y Z

Misc - Hands-only Cpr tab

This piece is originally piano, obviously, so it doesn't sound quite as good as 
original. http://www.youtube.com/watch?v=YFRidFroYT8

This is one of my first transcriptions so feedback is welcome!

|---------2-------|
|---0-3-0---0-----|
|-0-----------2-4-|
|-----------------|
|-----------------|
|-----------------|

|---------2---7-7---0---5-0---0-----0---5-|
|---0-3-0---------3---3-----3-----3---3---|
|-0-----------------------------0---------|
|-----------------------------------------|
|-----------------------------------------|
|-----------------------------------------|



|-7-------2-------|
|-----3-0---0-----|
|---0---------2-4-|
|-----------------|
|-----------------|
|-----------------|

|---------2---7-7---0---5-0---0-----0---5-|-7---0---|
|---0-3-0---0-----3---3-----3-----3---3---|---3---3-|
|-0-----------------------------0---------|---------|
|-----------------------------------------|---------|
|-----------------------------------------|---------|
|-----------------------------------------|---------|
Tap to rate this tab
# A B C D E F G H I J K L M N O P Q R S T U V W X Y Z