Song name
# A B C D E F G H I J K L M N O P Q R S T U V W X Y Z

Misc - Written In Stone - Lost tab

Db|--------------------------------------------------------------------------|
Ab|--------------------------------------------------------------------------|
E |--------------------------------------------------------------------------|
B |--------------------------------------------------------------------------|
Gb|2-2-22-3-0-2-2-22-3-0-2-2-22-3-0-2-2-2-5-5-5----(X4)----------------------|
B |2-2-22-3-0-2-2-22-3-0-2-2-22-3-0-2-2-2-6-6-6------------------------------|

Db|--------------------------------------------------------------------------|
Ab|--------------------------------------------------------------------------|
E |--------------------------------------------------------------------------|
B |--------------------------------------------------------------------------|
Gb|2~-3~-0~-------------9-------------7------(X2)----------------------------|
B |2~-3~-0~-10-10-10-10---10-10-10-10---9\-----------------------------------|

Db|--------------------------------------------------------------------------|
Ab|--------------------------------------------------------------------------|
E |--------------------------------------------------------------------------|
B |--------------------------------------------------------------------------|
Gb|2222-2222-3-2222-2222-3-2222-2222-3-/5-5-5-0-0-0-----(X4)-----------------|
B |2222-2222-3-2222-2222-3-2222-2222-3-/5-5-5-0-0-0--------------------------|

Chorus
Verse 2
Verse 2 (part 2):below

Db|--------------------------------------------------------------------------|
Ab|--------------------------------------------------------------------------|
E |--------------------------------------------------------------------------|
B |--------------------------------------------------------------------------|
Gb|------------------------------5-5-5-0-0-0-------(X2)----------------------|
B |2-2-2-2---2-2-2-2---2-2-2-2---5-5-5-0-0-0---------------------------------|

Chorus
Bridge: below

Db|--------------------------------------------------------------------------|
Ab|--------------------------------------------------------------------------|
E |--------------------------------------------------------------------------|
B |--------------------------------------------------------------------------|
Gb|--------5---------------3---------------5--------------------2----(X4)----|
B |22222222-222222233333333-333333322222222-222222200000000-0235-532---------|

You Know The Rest!!!!
Tap to rate this tab
# A B C D E F G H I J K L M N O P Q R S T U V W X Y Z