Song name
# A B C D E F G H I J K L M N O P Q R S T U V W X Y Z

Misc - Chinese Sound tab

I think It's kinda fun cause it's used in a lot of movies and stuff.
a real nice tab for the beginners.

E --12-12-12-12-10-10-------10-10-------
B --------------------12-12-------------
G --------------------------------------
D --------------------------------------
A --------------------------------------
E --------------------------------------

just repeat it a couple of times.

if you have an electric guitar crank up the volume and distortion and play this 4 fun.

E --12-12-12-12-10-10--------10-10------
B --12-12-12-12-10-10--12-12-10-10------
G ---------------------12-12------------
D --------------------------------------
A --------------------------------------
E --------------------------------------

If you have problems, please don't mail me.
Tap to rate this tab
 
# A B C D E F G H I J K L M N O P Q R S T U V W X Y Z